Band: Story of the Year
Song: And the Hero Will Drown
Album: Page Avenue
Submitted By: Stand Alone ([email protected])

Dropped D Tuning

  Intro
E|12----14-----15-----13-------------------------------
B|x------x------x------x-------------------------------
G|9-----11-----12-----11-------------------------------
D|-----------------------------------------------------
A|-----------------------------------------------------
D|-----------------------------------------------------

E|12----14-----15-----17-----19------------------------
B|x------x------x------x------x------------------------
G|9-----11-----12-----14-----16------------------------
D|--------------------------------------0-2------------
A|--------------------------------------0-2------------
D|--------------------------------------0-2------------
  Verse (listen to song for rhythm)
E|-----------------------------------------------------
B|-----------------------------------------------------
G|-----------------------------------------------------
D|3-2-0-2----3-2-0-2----3-2-0-2----3-2-0-222-0---------
A|3-2-0-2----3-2-0-2----3-2-0-2----3-2-0-222-0---------
D|3-2-0-2----3-2-0-2----3-2-0-2----3-2-0-222-0---------
  Chorus
E|-----------------------------------------------------
B|-----------------------------------------------------
G|-----------------------------------------------------
D|9-9-9-9-4-4-4-4-5-5-5-5-7-7-7-7----------------------
A|7-7-7-7-2-2-2-2-3-3-3-3-5-5-5-5----------------------
D|-----------------------------------------------------
  BridgeA
E|-----------------------------------------------------
B|-----------------------------------------------------
G|-----------------------------------------------------
D|2-2-2----2-2-2--2-2-2--2-2-2-------------------------
A|2-2-2----2-2-2--2-2-2--2-2-2-------------------------
D|2-2-2----2-2-2--2-2-2--2-2-2-------------------------

E|-----------------------------------------------------
B|(---(play 3x)------------)---------------------------
G|-----------------------------------------------------
D|2-2-2----999--2-2-2----777--2-2-2----999---x~~~~~~---
A|2-2-2----777--2-2-2----555--2-2-2----777---x~~~~~~---
D|2-2-2---------2-2-2---------2-2-2----------x~~~~~~---

  BridgeB
E|-----------------------------------------------------
B|(--(play 4x)--------)--------------------------------
G|-----------------------------------------------------
D|2-2-2-000-2-2-2-000----------------------------------
A|2-2-2-000-2-2-2-000----------------------------------
D|2-2-2-000-2-2-2-000----------------------------------


Intro
Verse 2x
Chorus 2x
Verse 2x
Chorus 4x
BridgeA
BridgeB
Chorus 8x
BridgeB


Текст, аккорды и табулатура для песни "And The Hero Will Drown", исполняет "Story Of The Year".
Используемые в песне аккорды можно найти в разделе Как брать аккорды. Аккорды для шестиструнной гитары. Другие песни можно найти на нашем сайте, воспользовавшись алфавитным указателем вверху страницы.


 
Ошибка в тексте? Выделите ошибку и нажмите Ctrl+Enter