Stone Temple Pilots

Wonderful

Tabbed by Matthew Moore ([email protected]E.co.uk)

Verse
-----------------------|----------------------------|
--------------------10-|-8-7------------------------|
---3-3---3-3-/7-10-----|------10--------------------|
-------3---------------|---------8-8--0-1-3---------|

--------------------|-3-2-0-------------------------|
------(5)-------2-5-|-------3-----2-3-5-------------|
--3-3-----3-3-3-----|----------3--------------------|
-------3------------|-------------------------------|

-----------------------|----------------------------|
--------------------10-|-8-7------------------------|
---3-3---3-3-/7-10-----|------10--------------------|
-------3---------------|---------8-8--0-1-3---------|

------------------|---------------------------------|
------------------|---------------------------------|
--3-3---3-3-------|-1-0-----------------------------|
------3-----0-1-3-|------3--1--0--1--3/-------------|

Pre Chorus
------------------------|-----------------------------|
------------------------|-----------------------------|
-8-8---8---8-----8--10--|-11-11-13-13-13-13-13-13-----|
-----8---8-----8--------|-------------------------13-|

------------------|----------------|-------------------|--------------|
----------------2-|--7-7---7-------|-------6-6---6---6-|--5-----------|
--3-3---3---3-3---|------7---7-----|---3-6-----6---6---|--------------|
------3---3-------|------------5-5-|-4-----------------|----------3---|

------------------------|-----------------------------|
------------------------|-----------------------------|
-8-8---8---8-----8--10--|-11-11-13-13-13-13-13-13-----|
-----8---8-----8--------|-------------------------13-|

Pre Chorus 2
------------------------|-----------------------------|
------------------------|-----------------------------|
-8-8---8---8-----8--10--|-11-11-13-13-13-13-13-13-----|
-----8---8-----8--------|-------------------------13-|

--------------------|--------------|-------------|----------------------|
--------------------|--------------|-6-6---6---6-|-5-5-5-5-------------|
--3-3---3---3---3-2-|-0--0---0---0-|-----6---6---|----------------------|
------3---3---3-----|------0---0---|-------------|----------3-3-3-3-2-3-|

Chorus
--------------------|--------------------|
--------------------|--------------------|
--------------------|--------------------|
--4-4-3-4-3-4-3-4-5-|-6-6-5-6-5-6-5-6-7--|

--------------------------------|------------------------------|
------------10-10----10-10------|-----------10-10----10-10-----|
------8/-10-------10-------8-10-|-----8/-10-------10-------10-|
--8-8---------------------------|-8-8--------------------------|

Chorus 2
--------------------|--------------------|
--------------------|--------------------|
--------------------|--------------------|
--4-4-3-4-3-4-3-4-5-|-6-6-5-6-5-6-5-6-7--|

--------------------------------|----------------------------------------|
------------10-10----10-10------|-----------10-----10-12--12/14--12-10---|
------8/-10-------10-------8-10-|-----8/-10----10------------------------|
--8-8---------------------------|-8-8------------------------------------|


Текст, аккорды и табулатура для песни "Wonderful", исполняет "Stone Temple Pilots".
Используемые в песне аккорды можно найти в разделе Как брать аккорды. Аккорды для шестиструнной гитары. Другие песни можно найти на нашем сайте, воспользовавшись алфавитным указателем вверху страницы.


Слушать онлайн Wonderful


Stone Temple PilotsWonderful на Яндекс.Музыке


 
Ошибка в тексте? Выделите ошибку и нажмите Ctrl+Enter