Where The River Flows - Stone Temple Pilots
From the Album: Core

Tabbed By : Brad Wassink
Tuning: Standard (GDAE)

VERSE (Yeah, I could hide in the calm)

G|-----------------------------------------|
D|-----------------------------------------|
A|-----(7)-----(7)------(7)--------5-------|
E|-3-0------3-0-----3-0------3-5-3----(0)--|
                                     |^^^|	
					Only Play this note before the pause		
Fill 1

G|-----------|
D|-----------|
A|-----------|
E|-–5—---56--|

Chorus (Nowhere to run to nowhere to hide)

G|-----------------------------------| 2X ON THE LAST CHORUS THERE'S A SCALE 
D|-----------------------------------|	 HERE THAT I DON'T HAVE YET
A|-----------------------------------|
E|–3h5-5-53–3h5-55-3h5-5-53-3h55-55--|

						    Fill 1
G|-------------------------------------|-----------|
D|-------------------------------------|-----------|
A|-----(7)------(7)------(7)--------5--|-----------|
E|–3-0------3-0------3-0------3-5-3----|--5----56--|

Bridge (I Wanna be as big as a mountain)
						    Fill 1
G|---------------------------------|2x  |-----------|
D|---------------------------------|    |-----------|
A|–3-555-33-555-3-3-555-3-3-5553---|    |-----------|
E|---------------------------------|    |--5----56--|

Interlude (If I was stronger)

G|---------------------------------------------|
D|---------------------------------------------|
A|-7--7/3–-3/7–-7/3–323–-3/7–/10/3–-3/7–-7/3---|
E|---------------------------------------------|

Order:

Verse riff 2x
Fill 1
Verse 4x
Chorus
Verse 4x
Chorus 
Bridge 
Verse riff 1x
PAUSE
Verse 4x
Chorus 
Bridge
Interlude w/ Fill 1 2x
Verse 4x (solo)
Chorus
Bridge without Fill 1 (repeat and fade)


| /  slide up
|   slide down
| h  hammer-on
| p  pull-off
| ~  vibrato
| +  harmonic
| x  Mute note
===============================================================================


Текст, аккорды и табулатура для песни "Where The River Flows", исполняет "Stone Temple Pilots".
Используемые в песне аккорды можно найти в разделе Как брать аккорды. Аккорды для шестиструнной гитары. Другие песни можно найти на нашем сайте, воспользовавшись алфавитным указателем вверху страницы.


 
Ошибка в тексте? Выделите ошибку и нажмите Ctrl+Enter