Song Title: Trippin' on a Hole in a Paper Heart
Artist: Stone Temple Pilots
----------------------------------------------

  Intro    Verse
A|---0---||.----------------|----------------|---004060-07060-|---004060-07060-|
E|-------||.0222-02222-02200|0222-02222-02200|4/5-------------|4/5-------------|

A|----------------|----------------|---004060-07060-|---004060-07060-|
E|2-22-02222-02200|0222-02222-02200|4/5-------------|4/5-------------|

A|-----------------|----------------|0-00-0--000-|------------|
E|/2-22-02222-02200|0222-02222-02200|------------|4-4-4-04-4-3|
                  
D|-----------5-5^5--5--55------|
A|---------25---|-----5---5--0-|
E|3-3-3-3-3-----|-----------3--|

the verse is mostly made up of sixteenth notes with rests in between.
just listen to the song to figure out where to place them.

chorus                                                         1st ending    
                                                            /-----------
G|----------------|---------------|-----------|--------6-67|------------|
D|----------------|---------------|----------5|5/7-7979----|2--2-02--2-2|
A|2-2-2-202-2-2-20|2-2-2-202204-05|-5-07709-0-|------------|------------|

  ----------------
D|--------------- ||------------------|--------------|----------05-5|
A|000000000000247:||2-2-2-202-2-2-2-20|2-2-2-02200-0-|---------2----|
E|--------------- ||------------------|-------------3|3-3-3-3-3-----|
                                                                 2nd time to outro            
G|------------|----------------|--------------|--------------|----------6-67|
D|5-5--55-----|----------------|--------------|-------------5|5-5-7-7979-----|
A|----5---5--0|2-2-2-202-2-2-20|2-2-2-202204-5|5-5-5-07-0990-|---------------|
E|----------3-|----------------|--------------|--------------|---------------|

A|2-2-2-202-2-2-2-||-00000000000247-|

Outro

A|2-22-202-222-2-|-0000000000000-||

Song Order:
           Intro 
           Verse
           Chorus (take 1st ending)
           Verse
           Chorus (take 2nd ending)
           Verse
           Chorus (2nd ending, skip last 2 bars and go to outro)  
           outro 
  

Submitted by:   (Charlie Coville)


Текст, аккорды и табулатура для песни "Trippin On A Hole In A Paper Heart", исполняет "Stone Temple Pilots".
Используемые в песне аккорды можно найти в разделе Как брать аккорды. Аккорды для шестиструнной гитары. Другие песни можно найти на нашем сайте, воспользовавшись алфавитным указателем вверху страницы.


 
Ошибка в тексте? Выделите ошибку и нажмите Ctrl+Enter