I can't believe nobody posted this earlier. It's an awesome song,
and it's on OLGA to boot. The bass part I figured out myself.
It's all easy.

Intro: (fades in)

e -------------|
b 86-8-10-8---|
d -------------|  (watch the timing, it's not 4/4)
g -------------|
a -------------|
E -------------|

Verses:

e 3-----3-3-----3-3-3-3-----3-3-3-|1-----1-1-----1-1-1-1-----------|
b 2-----0-2-----0-2-0-2-----0-2-0-|3-----3-3-----3-3-3-3-----------|
d 0-----0-0-----0-0-0-0-----0-0-0-|3-----3-3-----3-3-3-3-----------|
g 0-----0-0-----0-0-0-0-----0-0-0-|3-----3-3-----3-3-3-3---------0-|
a x-----x-x-----x-x-x-x-----x-x-x-|1-----0-1-----0-1-0-1---0-1-3---|
E 3-----3-3-----3-3-3-3-----3-3-3-|--------------------------------|

Chorus:

e ------------------------------------|----------------|
b ------------------------------------|----------------|
d ------------------------------------|----------------|
g 5-5-5-5/7-7-7-7/9-9-9-9/11-11-11-11-|11-12-11-----11-|
a x-x-x-x-x-x-x-x-x-x-x-x-x--x--x--x--|x--x--x------x--|
E 3-3-3-3/5-5-5-5/7-7-7-7/9--9--9--9--|9--10-9------9--|

e --------------------------------|----------------|
b --------------------------------|----------------|
d --------------------------------|----------------|
g 3-3-3-3/5-5-5-5/7-7-7-7/9-9-9-9-|11-12-11-----11-|
a x-x-x-x-x-x-x-x-x-x-x-x-x-x-x-x-|x--x--x------x--|
E 1-1-1-1/3-3-3-3/5-5-5-5/7-7-7-7-|9--10-9------9--|

e --------------------------------|
b --------------------------------|
d 6-6-6-6-----6-6-6-6-----6-6-----|
g 5-5-5-5-----5-5-5-5-----5-5-----| (twice)
a x-x-x-x-----x-x-x-x-----x-x-----|
E 3-3-3-3-----3-3-3-3-----3-3-----|

Any comments or questions can be sent to [email protected]

Peace.


Текст, аккорды и табулатура для песни "Regeneration", исполняет "Stone Temple Pilots".
Используемые в песне аккорды можно найти в разделе Как брать аккорды. Аккорды для шестиструнной гитары. Другие песни можно найти на нашем сайте, воспользовавшись алфавитным указателем вверху страницы.


Слушать онлайн Regeneration


Stone Temple PilotsRegeneration на Яндекс.Музыке


 
Ошибка в тексте? Выделите ошибку и нажмите Ctrl+Enter