Исправления и вопросы принимаются на мыло: [email protected]

Нестандартная настройка: (e, B, G, D#, A, D) см. ниже

x - неприжатая нота
/ - слайд
` - вибрато
(8)xxxx - неприжатая нота на 8-ом (к примеру) ладу

     1.Вступление

e:   ----------------------------------------------------------------------------
B:   ----------------------------------------------------------------------------
G:   ------x---9/11---x---11/9---9---x--8`---8`---x---9--9---9---9/
D#: ------x---8/10---x---10/8---8---x---8`---8`---x---8--8---8---8/      
´ А потом начинается куплет
A  : ------x---7 / 9---x---9 / 7---7---x--6`---6`---x---7--7---7---7/
D  : ----------------------------------------------------------------------------
                             	   
      2. Куплет и пре-припев:

e:   -------------------------------------------------------------------
B:   -------------------------------------------------------------------
G:   -----/ 9/11---x---11/9---9---x--8`---8`---x---9--9---9/
D#: ------/ 8/10---x--10/8---8---x---8`---8`---x---8--8---8/      
A  : ------/ 7/ 9---x---9 / 7---7---x--6`---6`---x---7--7---7/       
´ Это играется 7 раз вместе со вступлением, а на восьмой это:
D  : -------------------------------------------------------------------      


e:   -------------------------------------------------------------------------
B:   -------------------------------------------------------------------------
G:   -----/ 9/11---x---11/9---9---x--8`---8`-8--(8)xxxx---9--9/
D#: ------/ 8/10---x--10/8---8---x---8`---8`-8-(8)xxxx---8--8/      
´ Теперь играй 3 раза то же самое, что в куплете, на 4-ый
A  : ------/ 7/ 9---x---9 / 7---7---x--6`---6`-6--(6)xxxx---7--7/      вот это:
D  : ------------------------------------------------------------------------       


e:   -----------------------------------------------------------------------------------
B:   -----------------------------------------------------------------------------------
G:   -----/ 9/11---x---11/9---9---x--8`---8`-8--8-8-8-8-8-and so on...
D#: ------/ 8/10---x--10/8---8---x---8`---8`-8--8-8-8-8-8-and so on...
A  : ------/ 7/ 9---x---9 / 7---7---x--6`---6`-6--6-6-6-6-6-and so on...
D  : ------------------------------------------------------------------------------------       

      3. Chorus:

e:   --------------------------------------
B:   --------------------------------------
G:   --------------------------------------
D#: --------------------------------------         ´ Это играется 8 раз
A  : ------4--4--4--2---2--4--2-------
D  : ------4--4--4--2---2--4--2-------       

Потом опять куплет, пре-припеп и припев;

А после второго припева иде проигрыш;

      4. Проигрыш:

e:   ------------------------------------------------------------------------------------------------------------
B:   ------------------------------------------------------------------------------------------------------------
G:   ------9---------------------- 4----------------------------------------------------------------------------   
D#: ------8-----------------------3----------------------------------------------------------------------------      ´ 2 раза
A  : ------7-----------------------2-----------------------4--4--4--2---2--4--2---4--4--4--2---2--4--2
D  : -------------------------------------------------------4--4--4--2---2--4--2---4--4--4--2---2--4--2

А на третий вот так

e:   ------------------------------------------------------------
B:   -----------------------------------------------------------
G:   ------9---------------------- 4-----4--4--4--4--4----
D#: ------8-----------------------3-----3--3--3--3--3-----  
A  : ------7-----------------------2-----2--2--2--2--2-----
D  : -----------------------------------------------------------

Потом музон как в припеве с жестким соло, за неимением эл.гитары не подобрал...

Сыграть последний раз куплет, пре-припеп и припев;

Это все, можно пойти пива выпить...


P.S.Если ты знаешь соло, пришлите его please мне...[email protected]


Текст, аккорды и табулатура для песни "Art School Girl", исполняет "Stone Temple Pilots".
Используемые в песне аккорды можно найти в разделе Как брать аккорды. Аккорды для шестиструнной гитары. Другие песни можно найти на нашем сайте, воспользовавшись алфавитным указателем вверху страницы.


Слушать онлайн Art School Girl


Stone Temple PilotsArt School Girl на Яндекс.Музыке


 
Ошибка в тексте? Выделите ошибку и нажмите Ctrl+Enter