Song:  Adhesive
Artist: Stone Temple Pilots
Album:  Tiny Music...
Tabbed By: The Khan ([email protected])

Verse - Just switch between A and E until the Chorus (follow the guitar)

Chorus
G---------------------------------------------------------------|
D-----------------4-44------44-------4-44----------4-44------44-|
A-2/16-16-16----------------------------------------------------|
E------------2-2-------2-22----2-2-2-------2-2h5-5------5-55----|

G------------------------|
D-------4-44--4-2-1-1----|
A-2-2-2---------------2--|
E------------------------|

Verse again

Chorus 2x        


Текст, аккорды и табулатура для песни "Adhesive", исполняет "Stone Temple Pilots".
Используемые в песне аккорды можно найти в разделе Как брать аккорды. Аккорды для шестиструнной гитары. Другие песни можно найти на нашем сайте, воспользовавшись алфавитным указателем вверху страницы.


Слушать онлайн Adhesive


Stone Temple PilotsAdhesive на Яндекс.Музыке


 
Ошибка в тексте? Выделите ошибку и нажмите Ctrl+Enter