Tabbed By - The Root Of All Evil

Intro Bass arr. 4 gtr:
|----------|---------|-----------|---------|
|----------|---------|-----------|---------|
|----------|---------|-----------|---------|
|----------|---------|-----------|---------|
|-----5-6-5|----5-8-6|----5-6-5--|----5-8-6|
|-0-5------|0-5------|0-5-------5|1-5------|

Verse:
|-------------|-----------|-----------|-----------|
|-------------|-----------|-----------|-----------|
|-------------|-----------|-----------|-----------|
|-------------|-----------|-----------|-----------|
|-0-0-0-0-0-0-|0-0-0-0-0-0|0-0-0-0-0-0|0-0-0-6-0-5|
|-0-0-0-0-0-0-|0-0-0-0-0-0|0-0-0-0-0-0|0-0-0------|

Pre-Chorus:
|---------|-------|---------|-------|---------|-------|---------|---------|
|---------|-------|---------|-------|---------|-------|---------|---------|
|---------|-------|---------|-------|---------|-------|---------|---------|
|-7-5-8-10|-7-5-8-|-7-5-8-10|-7-5-8-|-7-5-8-10|-7-5-8-|-7-5-8-10|-7-5-----|
|-5-3-6--8|-5-3-6-|-5-3-6--8|-5-3-6-|-5-3-6--8|-5-3-6-|-5-3-6--8|-5-3-6---|
|---------|-------|---------|-------|---------|-------|---------|-----6-17|

Chorus:
|--------------|--------------|--------------|------------------|
|--------------|--------------|--------------|------------------|
|--------------|--------------|--------------|------------------|
|--------------|--------------|--------------|------------------|
|-0-0-0-1-0/6-5|-0-0-0-1-0/6-5|-0-0-0-1-0/6-5|-3-x-x-3-3-2-3-2-3|
|-0-0-0-1-0/6-5|-0-0-0-1-0/6-5|-0-0-0-1-0/6-5|-3-x-x-3-3-2-3-2-3|

Interlude/Outro:
|----------------------|-----------------------|
|----------------------|-----------------------|
|----------------------|-----------------------|
|----------------------|-----------------------|
|----------------------|-----------------------|
|-0-0-0-0-0-0-0-1-1-1-1|-1-1-1-1-1-1-1-1-1-1-1-|

Bridge:
|------|----------|-------------|----------|-------------|----------|
|------|-------6--|-------------|-------6--|-------------|-------6--|
|-7-8-7|-----7---8|-----7-8-7---|-----5---8|-8---7-8-7---|-----5---8|
|------|---5------|---5-------5-|---5------|---5-------5-|---5------|
|------|----------|-5-----------|-6--------|-------------|-6--------|
|------|-0--------|-------------|----------|-------------|----------|


Текст, аккорды и табулатура для песни "Orchids", исполняет "Stone Sour".
Используемые в песне аккорды можно найти в разделе Как брать аккорды. Аккорды для шестиструнной гитары. Другие песни можно найти на нашем сайте, воспользовавшись алфавитным указателем вверху страницы.


 
Ошибка в тексте? Выделите ошибку и нажмите Ctrl+Enter