Stone Sour - Monolith
Album: Stone Sour
Tuning: B,F#,B,E,G#,C
Tabbed By: Dean K ([email protected])

Josh - Lead guitar
Jim - Rhythm



Riff A
Josh (0:08)     (0:27)
----------------|------------------17----------|
-----3----------|--------15--------------------|
-2h3---3-2------|-/14h15----15-14^----14-14^---|
---------0------|------------------------------|
----------------|------------------------------|
----------------|------------------------------|

Riff A
Jim (0:20)
-----------------|
-----------------|
-----------------|
-----------------|
-12-12--12-12----|
-12-12--12-12----|

Verse
Josh & Jim (0:30)
--------------------|---------------------|
--------------------|---------------------|
--------------------|---------------------|
--------------------|-7-7-7-7-8-8-8-8-----|
--------------------|-7-7-7-7-8-8-8-8-----|
-7-7-7-7-8-8-8-8----|-7-7-7-7-8-8-8-8-----|
PM -------------|     

Chorus
Jim (0:58)
-------------------|
-------------------|
-------------------|
-12-8-7-5--3---7---|
-12-8-7-5--3---7---|
-12-8-7-5--3---7---|

Chorus  
Josh (1:01)
--------------------------|
--------------------------|
-7-10-12-14-14/1514-9----|
-x--x--x--x--x/-x-x-x----|
-5--8-10-12-12/1312-7----|
--------------------------|

Fill ( 16x )
Josh & Jim (1:18)
--------|
--------|
--------|
-0-0-0--|
-0-0-0--|
-0-0-0--|
PM ---|

Verse
Josh & Jim (1:30)
--------------------|---------------------|
--------------------|---------------------|
--------------------|---------------------|
--------------------|-7-7-7-7-8-8-8-8-----|
--------------------|-7-7-7-7-8-8-8-8-----|
-7-7-7-7-8-8-8-8----|-7-7-7-7-8-8-8-8-----|
PM -------------|     

Chorus
Jim (1:53)
-------------------|
-------------------|
-------------------|
-12-8-7-5--3---7---|
-12-8-7-5--3---7---|
-12-8-7-5--3---7---|

Chorus  
Josh (2:00)
--------------------------|
--------------------------|
-7-10-12-14-14/1514-9----|
-x--x--x--x--x/-x-x-x----|
-5--8-10-12-12/1312-7----|
--------------------------|

Fill ( 16x )
Josh & Jim (2:16)
--------|
--------|
--------|
-0-0-0--|
-0-0-0--|
-0-0-0--|
PM ---|

Chorus
Jim (2:51)
-------------------|
-------------------|
-------------------|
-12-8-7-5--3---7---|
-12-8-7-5--3---7---|
-12-8-7-5--3---7---|

Chorus  
Josh (2:57)
--------------------------|
--------------------------|
-7-10-12-14-14/1514-9----|
-x--x--x--x--x/-x-x-x----|
-5--8-10-12-12/1312-7----|
--------------------------|

Ending
Jim (3:14)
-------------------------------------------------|
-------------------------------------------------|
-------------------------------------------------|
-12-x-x-x-12-x-x-x-12-x-x-x-12-x-x-x-12--10-10---|
-12-x-x-x-12-x-x-x-12-x-x-x-12-x-x-x-12--10-10---|
-12-x-x-x-12-x-x-x-12-x-x-x-12-x-x-x-12--10-10---|

Ending
Josh (3:28)
-------------------------------------------------------|
-------------------------------------------------------|
-9--9--10------9--9--10------9--9--10------9--9--10----|
-x--x---x------x--x---x------x--x---x------x--x---x----|
-7--7---8------7--7---8------7--7---8------7--7---8----|
-------------------------------------------------------|

Jim (3:38)	   Josh (Pick Scrapes)
------------------|------------------|
------------------|------------------|
------------------|------------------|
---12---------|------------------|
---12---------|------------------|
---12---------|-//////////--|


Текст, аккорды и табулатура для песни "Monolith", исполняет "Stone Sour".
Используемые в песне аккорды можно найти в разделе Как брать аккорды. Аккорды для шестиструнной гитары. Другие песни можно найти на нашем сайте, воспользовавшись алфавитным указателем вверху страницы.


 
Ошибка в тексте? Выделите ошибку и нажмите Ctrl+Enter