-------------------------------------------------------------------------------
			     STONE SOUR - Inhale
-------------------------------------------------------------------------------

Tabbed By : Chris Cyhan
e-mail: [email protected]

Tuning: Standard B (4 or 5-string)

Riff #1

G|---------------------------------------------------------------------------|
D|---------------------------------------------------------------------------|
A|---------------------------------------------------------------------------|
E|-----0-2-4-----------------------------------------------------------------|
B|-0-3-----------------------------------------------------------------------|

Riff #2
(Repeat 4 times)
G|---------------------------------------------------------------------------|
D|---------------------------------------------------------------------------|
A|---------------------------------------------------------------------------|
E|---2-1---------------------------------------------------------------------|
B|-0-----3-2-----------------------------------------------------------------|

Riff #3
(Repeat 4 times)
G|---------------------------------------------------------------------------|
D|---------------------------------------------------------------------------|
A|---------------------------------------------------------------------------|
E|---333-2-22----------------------------------------------------------------|
B|-0-------------------------------------------------------------------------|

Riff #4

G|---------------------------------------------------------------------------|
D|---------------------------------------------------------------------------|
A|---------------------------------------------------------------------------|
E|-55555555-55555555-55555555-55555-55---------------------------------------|
B|---------------------------------------------------------------------------|

Riff #5
(Repeat 2 times)
G|---------------------------------------------------------------------------|
D|---------------------------------------------------------------------------|
A|---------------------------------------------------------------------------|
E|-------------------00000000-2222-4444--------------------------------------|
B|-00000000-33333333---------------------------------------------------------|

Riff #3
(Repeat 4 times)

Riff #4

Riff #5
(Repeat 2 times)

Riff #6
(Let note ring until next riff #7)
G|---------------------------------------------------------------------------|
D|---------------------------------------------------------------------------|
A|---------------------------------------------------------------------------|
E|---------------------------------------------------------------------------|
B|-0-------------------------------------------------------------------------|

Riff #7
(Repeat 3 times)
G|---------------------------------------------------------------------------|
D|---------------------------------------------------------------------------|
A|---------------------------------------------------------------------------|
E|-2222-4444-----------------------------------------------------------------|
B|-----------0---------------------------------------------------------------|

Riff #8
(Mute final note)
G|---------------------------------------------------------------------------|
D|---------------------------------------------------------------------------|
A|---------------------------------------------------------------------------|
E|-00000000-00000000-0-------------------------------------------------------|
B|---------------------------------------------------------------------------|

Riff #5
(Repeat 4 times)

Riff #2
(Repeat 4 times)

Riff #6
(Let note ring as long as possible)


Текст, аккорды и табулатура для песни "Inhale", исполняет "Stone Sour".
Используемые в песне аккорды можно найти в разделе Как брать аккорды. Аккорды для шестиструнной гитары. Другие песни можно найти на нашем сайте, воспользовавшись алфавитным указателем вверху страницы.


 
Ошибка в тексте? Выделите ошибку и нажмите Ctrl+Enter