Idle Hands – Stone Sour

Tabbed by Tinboy
Tuning B F# B E G# C#

Key
~  tremolo
  slide
PM palm mute

Intro

|------------------------------------------------------------------|
|------------------------------------------------------------------|
|-7-7-7---7---8----------------7-7-7---7-3-------------------------|
|-7-7-7---7---8--5-7-4---------7-7-7---7-3--------------5-4~-------| x2
|-5-5-5-0-5-0-6--------5-6-5~--5-5-5-0-5-1--3-0-3-0-3-0------------|
|------------------------------------------------------------------|

|---|
|---|
|---|
|-0-| hold note
|-0-|
|-0-|

Verse

|------------------------------------------------------------------|
|------------------------------------------------------------------|
|------------------------------------------------------------------|
|---0-0-0----------------------0-0-0-------------------------------| x2
|---0-0-0----------------------0-0-0-------------------------------|
|-0-0-0-0-1-0--0-0--0-1-0-3--0-0-0-0-1-0--0-0--3-3-3-1-1-1---------|
PM  - - -                      - - -           - - - - - -

|------------------------------------------------------------------|
|------------------------------------------------------------------|
|------------------------------------------------------------------|
|-0-0-0-0--------------------0-0-0-0-------------3-1-0-------------| x2
|-0-0-0-0--------------------0-0-0-0-------------3-1-0-------------|
|-0-0-0-0-1-0--0-0--0-1-0-3--0-0-0-0-1-0--0-0--0-3-1-0-------------|
PM- - - -                    - - - -             - - 

Pre Chorus

|---------------------------------------------------|
|---------------------------------------------------|
|--------------------------13---12------------------|
|-0---8---13---12--0---8---13---12---65-0-0-0------|
|-0---8---13---12--0---8---11---10---65-0-0-0------|
|-0---8---13---12--0---8-------------65-0-0-0-1-0--|
PM                                       - - -

Bridge

|-------------------------------------------------------------------|
|-------------------------------------------------------------------|
|-------------------------------------------------------------------|
|-0-0-0-0-------------0-0-0-------------0-0-0-------------0-0-0-----|
|-0-0-0-0-------------0-0-0-------------0-0-0-------------0-0-0-----|
|-0-0-0-0-1-0-1-0-1-0-0-0-0-1-0-1-0-1-0-0-0-0-1-0-1-0-1-0-0-0-0-1-0-|

|---|
|---|
|---|
|-6-|
|-6-|
|-6-|

|-------------------------------------------------------------------|
|-------------------------------------------------------------------|
|-------------------------------------------------------------------|
|-0-0-0-0-------------0-0-0-------------0-0-0-------------0-0-0-----|
|-0-0-0-0-------------0-0-0-------------0-0-0-------------0-0-0-----|
|-0-0-0-0-1-0-1-0-1-0-0-0-0-1-0-1-0-1-0-0-0-0-1-0-1-0-1-0-0-0-0-1-0-|

|-----------|
|-----------|
|-----------|
|-6-0-----0-| hold last note
|-6-0-----0-|
|-6-0-----0-|

Verse

|------------------------------------------------------------------|
|------------------------------------------------------------------|
|------------------------------------------------------------------|
|---0-0-0----------------------0-0-0-------------------------------| x2
|---0-0-0----------------------0-0-0-------------------------------|
|-0-0-0-0-1-0--0-0--0-1-0-3--0-0-0-0-1-0--0-0--3-3-3-1-1-1---------|
PM  - - -                      - - -           - - - - - -

|------------------------------------------------------------------|
|------------------------------------------------------------------|
|------------------------------------------------------------------|
|-0-0-0-0--------------------0-0-0-0-------------3-1-0-------------| x2
|-0-0-0-0--------------------0-0-0-0-------------3-1-0-------------|
|-0-0-0-0-1-0--0-0--0-1-0-3--0-0-0-0-1-0--0-0--0-3-1-0-------------|
PM- - - -                    - - - -             - - 

Pre Chorus

|----------------------------------------------------|
|----------------------------------------------------|
|----------------------------13---12-----------------|
|-0---8---13---12----0---8---13---12---65-0-0-0-----|
|-0---8---13---12----0---8---11---10---65-0-0-0-----|
|-0---8---13---12----0---8-------------65-0-0-0-1-0-|
PM                                         - - -

Chorus

|------------------------------------------------------------------|
|------------------------------------------------------------------|
|-7-7-7---7---7--3-3-3---3---3-------------------------------------|
|-7-7-7---7---7--3-3-3---3---3--3-3-3---3---3--1-1-1---1---1-0-----| x2
|-5-5-5-0-5-0-5--1-1-1-0-1-0-1--3-3-3---3---3--1-1-1---1---1-0-----|
|-------------------------------3-3-3-0-3-0-3--1-1-1-0-1-0-1-0-----|

|----------------------------------|
|----------------------------------|
|----------------------------------|
|-3-2-0-2-0-0-3-2--3-2-0-2-0-2-3-2-| x2
|-3-2-0-2-0-0-3-2--3-2-0-2-0-2-3-2-|
|-3-2-0-2-0-0-3-2--3-2-0-2-0-2-3-2-|
PM- - - - - - - -  - - - - - - 

|---|
|---|
|---|
|-0-| hold note
|-0-|
|-0-|

Bridge

|------------------------------------------------------------------|
|------------------------------------------------------------------|
|-7-7-7---7---8----------------7-7-7---7-3-------------------------|
|-7-7-7---7---8--5-7-4---------7-7-7---7-3--------------5-4~-------| x2
|-5-5-5-0-5-0-6--------5-6-5~--5-5-5-0-5-1--3-0-3-0-3-0------------|
|------------------------------------------------------------------|

|---|
|---|
|---|
|-0-| hold note
|-0-|
|-0-|

Verse

|------------------------------------------------------------------|
|------------------------------------------------------------------|
|------------------------------------------------------------------|
|---0-0-0----------------------0-0-0-------------------------------| x2
|---0-0-0----------------------0-0-0-------------------------------|
|-0-0-0-0-1-0--0-0--0-1-0-3--0-0-0-0-1-0--0-0--3-3-3-1-1-1---------|
PM  - - -                      - - -           - - - - - -

|------------------------------------------------------------------|
|------------------------------------------------------------------|
|------------------------------------------------------------------|
|-0-0-0-0--------------------0-0-0-0-------------3-1-0-------------| x2
|-0-0-0-0--------------------0-0-0-0-------------3-1-0-------------|
|-0-0-0-0-1-0--0-0--0-1-0-3--0-0-0-0-1-0--0-0--0-3-1-0-------------|
PM- - - -                    - - - -             - -

Pre Chorus

|----------------------------------------------------|
|----------------------------------------------------|
|----------------------------13---12-----------------|
|-0---8---13---12----0---8---13---12---65-0-0-0-----|
|-0---8---13---12----0---8---11---10---65-0-0-0-----|
|-0---8---13---12----0---8-------------65-0-0-0-1-0-|
PM                                       - - - -

Chorus

|------------------------------------------------------------------|
|------------------------------------------------------------------|
|-7-7-7---7---7--3-3-3---3---3-------------------------------------|
|-7-7-7---7---7--3-3-3---3---3--3-3-3---3---3--1-1-1---1---1-0-----| x2
|-5-5-5-0-5-0-5--1-1-1-0-1-0-1--3-3-3---3---3--1-1-1---1---1-0-----|
|-------------------------------3-3-3-0-3-0-3--1-1-1-0-1-0-1-0-----|

|----------------------------------|
|----------------------------------|
|----------------------------------|
|-3-2-0-2-0-0-3-2--3-2-0-2-0-2-3-2-| x2
|-3-2-0-2-0-0-3-2--3-2-0-2-0-2-3-2-|
|-3-2-0-2-0-0-3-2--3-2-0-2-0-2-3-2-|
PM- - - - - - - -  - - - - - - 

|------------------------------------------------------------------|
|------------------------------------------------------------------|
|-7-7-7---7---8----------------7-7-7---7-3-------------------------|
|-7-7-7---7---8--5-7-4---------7-7-7---7-3--------------5-4~-------| x2
|-5-5-5-0-5-0-6--------5-6-5~--5-5-5-0-5-1--3-0-3-0-3-0------------|
|------------------------------------------------------------------|

second time hold last note and let fade

many thanks to nothingface_78 on this tab.
he did most of the work i just did the fine tuning ;)
however, there was quite a lot of fine tuning to be done :D


Текст, аккорды и табулатура для песни "Idle Hands", исполняет "Stone Sour".
Используемые в песне аккорды можно найти в разделе Как брать аккорды. Аккорды для шестиструнной гитары. Другие песни можно найти на нашем сайте, воспользовавшись алфавитным указателем вверху страницы.


 
Ошибка в тексте? Выделите ошибку и нажмите Ctrl+Enter