Tabbed By - The Root Of All Evil

Intro A Gtrs 1 & 2:
C#|--------------------------------|---------------------------|
G#|--------------------------------|---------------------------|
 E|--------------------------------|---------------------------|
 B|--------------------------------|---------------------------|
F#|--------------------------------|---------------------------|
 B|-3-2-1-0-0-0-3-2-1-0-0-0-1-0-1-0|3-2-1-0-0-0-3-2-1-0-0-0-3-6|

Con't:
|--------------------------------|-------------------------------|
|--------------------------------|-------------------------------|
|--------------------------------|-------------------------------|
|--------------------------------|-------------------------------|
|--------------------------------|------------------------3-6-3-2|
|-3-2-1-0-0-0-3-2-1-0-0-0-1-0-1-0|3-2-1-0-0-0-2-1-0-0-0-0-3-6-3-2|

Intro B Gtrs 1 & 2:                                    
|------------------------|-----------------------|     
|------------------------|-----------------------|   
|------------------------|-----------------------| 
|------------------------|-----------------------|  
|-0-0-0-0-6-0-0-0-1-0-1-0|0-0-0-0-6-0-0-0-0------|  
|-0-0-0-0-6-0-0-0-1-0-1-0|0-0-0-0-6-0-0-0-0-3-6-2| 
 pm[-----]               pm[-----]

Verse Gtrs 1 & 2:
|------------------------|---------------------------|
|------------------------|---------------------------|
|------------------------|---------------------------|
|------------------------|---------------------------|
|-0-0-0-0-0-0-0-0-0-0-1-4|0-0-0-0-0-0-0-0-0-0-----6-5|
|-0-0-0-0-0-0-0-0-0-0-1-4|0-0-0-0-0-0-0-0-0-0-6-5----|
pm-----------------------------------------------]

Pre-Chorus Gtr 1:
|------------|------------|-----------|-----------|
|------------|------------|-----------|-----------|
|------------|--9------7--|-----------|-----------|
|-8-7-8-7-8-7|7---10-9---9|8-7-8-7-8-7|--------6-5|
|------------|------------|-----------|6-5--------|
|------------|------------|-----------|----6-5----|
|Gtr 2:
|------------|-----------|-----------|-----------|
|------------|-----------|-----------|-----------|
|------------|-----------|-----------|-----------|
|-8-7-8-7-8-7|--7-----5--|8-7-8-7-8-7|6-5--------|
|-6-5-6-5-6-5|5---8-7---7|6-5-6-5-6-5|--------6-5|
|------------|-----------|-----------|----6-5----|

Chorus Gtrs 1 & 2:
|------------------------|
|------------------------|
|------------------------|
|------------------------|
|-3-5-0-3-0-3-5-0-6-5-3-0|
|-3-5-0-3-0-3-5-0-6-5-3-0|

Bridge A:         Bridge B:
|----------------|----------------|
|----------------|----------------|
|----------------|----------------|
|----------------|----------------|
|----------------|-5-6-5-0-1-2-3-0|
|-5-6-5-0-1-2-3-0|-5-6-5-0-1-2-3-0|
pm---------------]

Solo:
|---17-21-17-------------20-17---------------------------|
|------------22-18-------------22-18----------------13---|
|19----------------19-17-------------19-17-19-12-14----14|
|--------------------------------------------------------|
|--------------------------------------------------------|
|--------------------------------------------------------|
|con't:
|-----------|--------------|
|-----------|--------------|
|12-12-12-17|14-14-14-14---|
|12-12-12-17|14-14-14----16|
|-----------|--------------|
|-----------|--------------|
|con't:
|---------------------------------------------------12-14-15|
|13-15-13-12----------13-15-13-12----------12-13-15---------|
|------------14-13-14-------------14-12-14------------------|
|-----------------------------------------------------------|
|-----------------------------------------------------------|
|-----------------------------------------------------------|
|con't:
|14-15-14-12---------------------------------------------------------|
|------------13-12----------12-15-13-12----------12-13-15-13-12------|
|------------------14-13-14-------------14-13-14----------------14-14|
|--------------------------------------------------------------------|
|--------------------------------------------------------------------|
|--------------------------------------------------------------------|
|con't:
|---------12-14-15-17-19----------------13-15-13|
|12-13-15----------------15-13-12-13-15---------|
|-----------------------------------------------|
|-----------------------------------------------|
|-----------------------------------------------|
|-----------------------------------------------|
|con't:
|--------------------12-13-15-17-20-23|
|--------15-12-14-16------------------|
|14-----------------------------------|
|---16-0------------------------------|
|-------------------------------------|
|-------------------------------------|

Outro:
|--------------------------------|---------------------------|
|--------------------------------|---------------------------|
|--------------------------------|---------------------------|
|--------------------------------|---------------------------|
|--------------------------------|---------------------------|
|-3-2-1-0-0-0-3-2-1-0-0-0-1-0-1-0|3-2-1-0-0-0-3-2-1-0-0-0-3-6|

Song Order:
Intro A
Intro B x2
Verse x2
Pre-Chorus
Chorus x3
Intro B x2
Verse x2
Pre-Chorus
Chorus x3
Bridge A x4
Bridge B x4
Solo
Verse x2
Pre-Chorus
Chorus x3
Outro x2


Текст, аккорды и табулатура для песни "Get Inside", исполняет "Stone Sour".
Используемые в песне аккорды можно найти в разделе Как брать аккорды. Аккорды для шестиструнной гитары. Другие песни можно найти на нашем сайте, воспользовавшись алфавитным указателем вверху страницы.


 
Ошибка в тексте? Выделите ошибку и нажмите Ctrl+Enter