Intro/Outro


C#|----------------------------------------------|
G#|----------------------------------------------|
E |----------------------------------------------|
B |----------------------------------------------|
F#|----------------------------------------------|
B |22110000221100002211002211000022110000-5-6----|
p.m......................................           

C#|-------------------------------------------------|
G#|-------------------------------------------------|
E |-------------------------------------------------|
B |---------------------------------------5h6-0-2p1-|
F#|---------------------------------------5h6-0-2p1-|
B |22110000221100002211002211000022110000-5h6-0-2p1-|
p.m......................................     .

Bridge
C#|-------------------------------------------------------|
G#|-------------------------------------------------------|
E |-------------------------------------------------------|
B |0---------5--0-0--0--1-0-1-0-0---------5--0-0--0-----5-|
F#|0---------5--0-0--0--1-0-1-0-0---------5--0-0--0-5-6---|
B |0--0-0-0--5--0-0--0--1-0-1-0-0--0-0-0--5--0-0--0-------|
p.m   . . .                        . . .
a.h                                                 + + +

C#|-------------------------------------------------------|
G#|-------------------------------------------------------|
E |-------------------------------------------------------|
B |0---------5--0-0--0--1-0-1-0-0---------5--0-0--0-----3-|
F#|0---------5--0-0--0--1-0-1-0-0---------5--0-0--0-5-6---|
B |0--0-0-0--5--0-0--0--1-0-1-0-0--0-0-0--5--0-0--0-------|
p.m   . . .                        . . .
a.h                                                 + + +

Verse
C#|------------------------------|
G#|------------------------------|
E |------------------------------|
B |----------------------1p0-1/5-|
F#|----------------------1p0-1/5-|
B |0-0--00-0-0---0-0--00-1p0-1/5-|
p.m. .  .. . .   . .  ..

C#|------------------------------|
G#|------------------------------|
E |--------------------------8/7-|
B |----------------------6-5-x-x-|
F#|----------------------6-5-6/5-|
B |0-0--00-0-0---0-0--00-6-5-----|
p.m. .  .. . .   . .  .. . .

Pre-Chorus
C#|-------------------------------|
G#|-------------------------------|
E |8--7---8--7---8--7---------8-7-|
B |x--x---x--x---x--x-------------|
F#|6--5---6--5---6--5-0-1-6-5-----|
B |-------------------0-1-6-5-----|
p.m                   . . . .
a.h                           + +

C#|-------------------------------|
G#|-------------------------------|
E |8--7---8--7---8--7---------8-7-|
B |x--x---x--x---x--x---------x-x-|
F#|6--5---6--5---6--5-0-1-6-5-6-5-|
B |-------------------0-1-6-5-----|

Chorus
C#|-----------------------------|
G#|-----------------------------|
E |-----------------------------|
B |3-5--0--0-3-0-3-5--0-6-5-3-0-|
F#|3-5--0--0-3-0-3-5--0-6-5-3-0-|
B |3-5--0--0-3-0-3-5--0-6-5-3-0-|

Interlude
C#|----------------|
G#|----------------|
E |----------------|
B |----------------|
F#|5-6-5-0-1-2-3-0-|
B |5-6-5-0-1-2-3-0-|
p.m. . . . . . . .

C#|----------------|
G#|----------------|
E |----------------|
B |5-6-5-0-1-2-3-0-|
F#|5-6-5-0-1-2-3-0-|
B |5-6-5-0-1-2-3-0-|

solo

C#|---------16p12p0-16p12p0-------16p12p0-16p12p0----12-------------------------
G#|---12h14-----------------12h16------------------16--12-12-14-----------xb----
E |------------------------------------------------------------14-(0)~---(0)-0b-
B |--------------------------------------------------------------121212-17--14b-
F#|--------------------------------------------------------------121212-17--14b-
B |-/---------------------------------------------------------------------------

C#|------------------------------------------14h19p14p0--|
G#|-----------------------------------------14h19--------|
E |---------------------------12h16h17--14h19------------|
B |------------------12h14h16----------------------------|
F#|----------12h14h16------------------------------------|
B |--12h14h16--------------------------------------------|

C#||--------------------------------------15h18h20|--------------22^^^^-|
G#||------------------------------15h16h18--------|-18h20 x 3-----------|
E ||19p18p16--121316--------15h16h18--------------|---------------------|
B ||-----------------121314-----------------------|---------------------|
F#|---------------------------------------------------------------------|
B ||----------------------------------------------|---------------------|


Текст, аккорды и табулатура для песни "Get Inside", исполняет "Stone Sour".
Используемые в песне аккорды можно найти в разделе Как брать аккорды. Аккорды для шестиструнной гитары. Другие песни можно найти на нашем сайте, воспользовавшись алфавитным указателем вверху страницы.


 
Ошибка в тексте? Выделите ошибку и нажмите Ctrl+Enter