Artist: Stone Sour
Song: Bother
Tuning: Normal (E,A,D,G,B,E)
Tabbed by: Tommi S.


Intro/Interlude:

    Ebm    Db                   Ebm    Db
1:|--6-----4------------------|-----6--4------------------|
2:|--6h7---6---4h7p6p4--------|-----7--6---4h7p6p4--------|
3:|--6h8---6------------6-----|--------6------------6-----|
4:|--6h8---6---------------8--|--------6---------------8--|
5:|--6-----4------------------|--6-----4------------------|
6:|---------------------------|---------------------------|

    Ebm    Db                   Ebm    Db5
1:|-----6--4------------------|-----6---------------------|
2:|-----7--6---4h7p6p4--------|-----7---------------------|
3:|--------6------------6-----|--------6------------------|
4:|--------6---------------8--|--------6------------------|
5:|--6-----4------------------|--6-----4------------------|
6:|---------------------------|---------------------------|

Verse:
 
    Ebm    Db                   Ebm    Db
1:|--6-----4------------------|--6-----4------------------|
2:|--7-----6------------------|--6h7---6------------------|
3:|--8-----6------------------|--6h8---6------------------|
4:|--8-----6------------------|--6h8---6------------------|
5:|--6-----4------------------|--6-----4------------------|
6:|---------------------------|---------------------------|
 
    Gb                          Ebm    Db
1:|---------------------------|--6-----4------------------|
2:|---------------2-----------|--7-----6---4h7p6p4--------|
3:|------3--------3---3-------|--8-----6------------6-----|
4:|------4--------4---4-------|--8-----6---------------8--|
5:|--4---4----4---4---4---4---|--6-----4------------------|
6:|--2---2----2---2---3---2---|---------------------------|

    Ebm    Db                   Ebm    Db
1:|--6-----4------------------|--6-----4------------------|
2:|--7-----6------------------|--6h7---6------------------|
3:|--8-----6------------------|--6h8---6------------------|
4:|--8-----6------------------|--6h8---6------------------|
5:|--6-----4------------------|--6-----4------------------|
6:|---------------------------|---------------------------|

    Gb                                    Db  
1:|---------------------------|--2--2--2--4---4----4---4--|
2:|---------------2-----------|--2--2--2--6---6----6---6--|
3:|------3--------3---3-------|--3--3--3--6---6----6---6--|
4:|------4--------4---4-------|--4--4-----6---6----6---6--|
5:|--4---4----4---4---4---4---|--4--------4---4----4---4--|
6:|--2---2----2---2---3---2---|--2------------------------|

Chorus:

    Ebm                          Db
1:|--6---------------------6--|--4------------------------|
2:|--7---------------------7--|--6------------------------|
3:|--8------------------------|--6------------------------|
4:|--8------------------------|--6------------------------|
5:|--6------------------6-----|--4------------------------|
6:|---------------------------|---------------------------|

    Ebm                          Bb         Bbsus4    Eb
1:|--6------------------------|--6--------------------6---|
2:|--7------------------------|--6--------------------6h7-|
3:|--8------------------------|--7---7--7---8--8--7---6h8-|
4:|--8------------------------|--8---8--8---8--8--8---6h8-|
5:|--6------------------------|--8---8--8---8--8--8---6---|
6:|---------------------------|--6---6--6---6--6--6-------|

    Ebm                          Db
1:|--6----6----------------6--|--4------------------------|
2:|--7----7---------7---7-----|--6------------------------|
3:|--8----8---------8---------|--6------------------------|
4:|--8----8---------8---------|--6------------------------|
5:|--6----6-------------------|--4------------------------|
6:|---------------------------|---------------------------|

    Gb                           Ab
1:|---------------------------|---------------------------|
2:|-----------------2---------|-----------------4---------|
3:|-----3------3----3---------|-----5------5----5---------|
4:|--4--4---4--4----4---4-----|--6--6---6--6----6---6-----|
5:|--4--4---4--4----4---4--4--|--6--6---6--6----6---6--6--|
6:|--2--2---2--2----2---2--2--|--4--4---4--4----4---4--4--|

Bridge:

    Ebm                          Bb
1:|--6--6---6----6----6----6--|---------------------------|
2:|--7--7---7----7----7----7--|--6--6---6----6----6----6--|
3:|--8--8---8----8----8----8--|--7--7---7----7----7----7--|
4:|--8--8---8----8----8----8--|--8--8---8----8----8----8--|
5:|--6--6---6----6----6----6--|--8--8---8----8----8----8--|
6:|---------------------------|--6--6---6----6----6----6--|

     Gb                          Db
1:|---------------------------|--4--4---4----4----4----4--|
2:|--2--2---2----2----2----2--|--6--6---6----6----6----6--|
3:|--3--3---3----3----3----3--|--6--6---6----6----6----6--|
4:|--4--4---4----4----4----4--|--6--6---6----6----6----6--|
5:|--4--4---4----4----4----4--|--4--4---4----4----4----4--|
6:|--2--2---2----2----2----2--|---------------------------|

Solo:   (Improvise)

Guitar 1:

1:|---------------------------|---------------------6-----|
2:|--9p7-6h7-------4h6-7/97--|--6------------------7-----|
3:|---------------------------|------8---6---6h8----8-----|
4:|---------------------------|---------------------8-----|
5:|---------------------------|---------------------6-----|
6:|---------------------------|---------------------------|

1:|---------------------------|---------------------------|
2:|---------------------------|---------------------------|
3:|--6h8p6--------------------|-----------------6h8p6--8--|
4:|----------6---6---8--------|-------4h6--6/8---------8--|
5:|---------------------------|--4h6-------------------6--|
6:|---------------------------|---------------------------|

1:|---------------------------|---------------------------|
2:|---------------------------|---------------------------|
3:|--13b--------11-----13p11--|--10h11p10--8--10--6--6h8--|
4:|---------------------------|---------------------------|
5:|---------------------------|---------------------------|
6:|---------------------------|---------------------------|

Guitar 2 (or bass?):

1:|---------------------------|
2:|---------------------------|
3:|---------------------------|  Repeat couple of times
4:|---------------------------|  over the 1st guitar... 
5:|-----4h6--6/8--6------4----|
6:|--6------------------------|

End: 

    Ebm
1:|--6-------6--|
2:|---7-----7---|
3:|----8---8----|  (Don’t pick, strum)
4:|-----8-8-----|  
5:|------6------|
6:|-------------|


Текст, аккорды и табулатура для песни "Bother (ver 8)", исполняет "Stone Sour".
Используемые в песне аккорды можно найти в разделе Как брать аккорды. Аккорды для шестиструнной гитары. Другие песни можно найти на нашем сайте, воспользовавшись алфавитным указателем вверху страницы.


 
Ошибка в тексте? Выделите ошибку и нажмите Ctrl+Enter