Bother- Stone Sour
 Intro:
 e-------------------------------------7-------
 b-7h8----7----7h8p7--------------8--- 7------- 
 g-7-------7-------------9---7------7---- 7----
 d-7h9----7--------------------- 9--------7----
 a-7-------7----------------------7--------7---
 e---------------------------------------------

Verse: . . .Wish I was. . .
e----------------------------------------------------------------
b-8---7---8--7--------------------7h8-----7---7h8p7--------------
g-7---7---7--7------7-7-7-7-7-----7-------7------------9p7-------
d-9---7---9--7------7-7-7-7-7-----7h9-----7-------------------9--
a-7---7---7--7------5-5-5-5-5-----7-------7-------------------7--
e----------------------------------------------------------------

e---------------------------------------------------------------------
b--------7------8------7---------------------------------------------- 
g-9------7------7------7------7--7--7--7--7--7--------7--7--7--7--7---
d-9------7------9------7------7--7--7--7--7--7--------7--7--7--7--7---
a-7------7------7------5------5--5--5--5--5--5--------9--9--9--9--9---
e-0-------------------------------------------------------------------

Chorus: ….You don’t need to bother. . .
 e----------------------------------------------------------------
 b-8-------7-------8------------------8--------7--------5----7---- 
 g-7-------7-------7---------8--------7--------7--------5----7---- 
 d-9-------7-------9---------9--------9--------7--------5----7---- 
 a-7-------7-------7---------9--------7--------7--------3----5---- 
 e---------------------------7------------------------------------

Bridge ? ...i wish i had a reason... 
 e-------------------------------------- 
 b-8-----------------5--------7--------- 
 g-7--------8--------5--------7---------
 d-9--------9--------5--------7--------- 
 a-7--------9--------3--------5---------
 e----------7---------------------------
 
Solo:
e-------------------------------------------------------------------
b-----10p8p7-8~~~------7h8-7~~~------------------------------------- 
g------------------7----------------9b----9-----------7------------- 
d------------------------------------------------7h9--------7/9----- 
a------------------------------------------------------------------- 
e-0-----------------------------------------------------------------

e------------------------10-----------------------------------------
b------------------------10b----8-10p8-7---10p8---------------------
g----------------7h9---------------------------------9--9---7h9-7h9-
d---5h7---7/9-------------------------------------------------------
a-5-----------------------------------------------------------------
e-------------------------------------------------------------------


Текст, аккорды и табулатура для песни "Bother", исполняет "Stone Sour".
Используемые в песне аккорды можно найти в разделе Как брать аккорды. Аккорды для шестиструнной гитары. Другие песни можно найти на нашем сайте, воспользовавшись алфавитным указателем вверху страницы.


 
Ошибка в тексте? Выделите ошибку и нажмите Ctrl+Enter