Stone Sour - Bother

I've seen some variations of this on the web, but none are this accurate.
This tab at least contains all the chords you need to play along w/the
band...enjoy

Intro:

e--------------------------6-------------------6-------------------6-------|
B---/7----6----/7-6--------7--6----/7-6--------7--6----/7-6--------7--6----|
G---/8----6---------8-6----8--6---------8-6----8--6---------8-6----8--6----|
D---/8----6-------------8--8--6-------------8--8--6-------------8--8--6----|
A---/6----8-------------6--6--8-------------6--6--8-------------6--6--8----|
E--------------------------------------------------------------------------|


Verse:

e---6----------------------------------------------------------------------|
B---7-----6-------7-------6-----------------------7----6----6/7/6----------|
G---8-----6-------8-------6-------7---------------8----6----------8p6------|
D---8-----6-------8-------6-------8---------------8----6--------------8p6--|
A---6-----8-------6-------8-------8---------------6----8-------------------|
E---------------------------------6----------------------------------------|

I wish I was too dead to cry, my self-affliction fades


e--6------------------------------------------------------|
B--7--------6-------7-----6--------------------------6----|
G--8--------6-------8-----6-------10---------3-------6----|
D--8--------6-------8-----6-------11---------4-------6----|
A--6--------8-------6-----8-------11---------4-------8----|
E--6--------8-------6-----8--------9---------2------------|

Stones to throw at my creator, machoists to which i cater


Chorus:

e--------------------------------------------------------------------------|
B--7-----------------6------7---------------------7------------------6-----|
G--8-----------------6------8---------------7-----8------------------6-----|
D--8-----------------6------8---------------8-----8------------------6-----|
A--6-----------------8------6---------------8-----6------------------8-----|
E-------------------------------------------6------------------------------|

  You don't need to bother, I don't need to be...I'll keep slipping farther


e---------------------------------------------                     --|
B--------------------------------------------7                     --|
G----8----------------10---------------------8                     --|
D----9----------------11---------------------8 {repeat intro here} --|
A----9----------------11---------------------6                     --|
E----7-----------------9----------------------                     --|

But once I hold on, I won't let go till it bleeds


...you can pretty much figure out the rest of the song from here


Текст, аккорды и табулатура для песни "Bother", исполняет "Stone Sour".
Используемые в песне аккорды можно найти в разделе Как брать аккорды. Аккорды для шестиструнной гитары. Другие песни можно найти на нашем сайте, воспользовавшись алфавитным указателем вверху страницы.


 
Ошибка в тексте? Выделите ошибку и нажмите Ctrl+Enter