Artist: Stone Sour
Album:self-title/Spiderman soundtrack
Song: Bother
tabbed by: James Jarvis - [email protected]

i couldnt figure out the solo, and i forgot the bridge...bear with me.
:P

Intro: Play twice
e|---------------------------------------|
B|-8--7-7h8p7--------7h8--7-7h8p7--------|
G|-9--7-------9p7----7h9--7-------9p7----|
D|-9--7-----------9--7h9--7-----------9--|
A|-7--7--------------7----7--------------|
E|---------------------------------------|

Verse: Play once with just Fill A, then once with Fill B
                Fill A      Fill B
e|------------|----------|------------|
B|-8--7--8--7-|----8--7--|----7-----7-|
G|-9--7--9--7-|-4--9--7--|-4--7--4--7-|
D|-9--7--9--7-|-5--9--7--|-5--7--5--7-|
A|-7--5--7--5-|-5--7--5--|-5--5--5--5-|
E|------------|-3--------|-3-----3----|

Chorus: Strum once then go back to the intro
e|--------------------------------|
B|-8---7---8---3---8---7---5---7--|
G|-9---7---9---2---9---7---5---7--|
D|-9---7---9---4---9---7---5---7--|
A|-7---5---7---2---7---5---3---5--|
E|--------------------------------|

thats all for now, ill put the rest up on a separate tab once i figure it out


Текст, аккорды и табулатура для песни "Bother", исполняет "Stone Sour".
Используемые в песне аккорды можно найти в разделе Как брать аккорды. Аккорды для шестиструнной гитары. Другие песни можно найти на нашем сайте, воспользовавшись алфавитным указателем вверху страницы.


 
Ошибка в тексте? Выделите ошибку и нажмите Ctrl+Enter