Bother
Stone Sour/Corey Taylor

tabbed by Dr. Linus Rebar

This is a great song, but not the best Stone Sour song.
And just to make the general public aware, Stone Sour
is actually a pretty good rock band too. This was just
Corey Taylor's emotional release. The rest of the Stone
Sour CD is pretty hard though, just to let any Maggots
who think that Corey Taylor's gone soft know.


Tuning: Eb Ab Db Gb Bb eb (Down 1/2 step)

Intro
e|------------------------------------------------------|
B|-7h8--7-7h8-----8--7---7h8-----8--7---7h8-----8--7----|
G|-7h9--7----9h7--9--7------9h7--9--7------9h7--9--7----|
D|-7h9--7-------9-9--7---------9-9--7---------9-9--7----|
A|-7h---7---------7--7-----------7--7-----------7--7----|
E|------------------------------------------------------|

Verse
e|------------------------------------------------------|
B|-7h8---7----7h8---7-------------------8---7-7h8-------|
G|-7h9---7----7h9---7------0-0-0-0-0-0--9---7----9h7----|
D|-7h9---7----7h9---7------0-0-0-0-0-0--9---7-------9---|
A|-7h7---7----7h7---7------2-2-2-2-2-2--9---7-----------|
E|-------------------------3-3-3-3-3-3------------------|
  Wish I was too dead to cry,  My self-affliction fades

e|------------------------------------------------------|
B|-7h8---7----7h8---7-------------------7-7-7-7-7-7-----|
G|-7h9---7----7h9---7------0-0-0-0-0-0--7-7-7-7-7-7-----|
D|-7h9---7----7h9---7------0-0-0-0-0-0--7-7-7-7-7-7-----|
A|-7h7---7----7h7---7------2-2-2-2-2-2--5-5-5-5-5-5-----|
E|-------------------------3-3-3-3-3-3------------------|
Stones to throw at my creator,  Masochists to which I cater

Chorus
e|------------------------------------------------------|
B|-8-----7h8--7--------8-------8--3-3-3-3-3-3-----------|
G|-9-----7h9--7--------9-------9--2-2-2-2-2-2-----------|
D|-9-----7h9--7--------9-------9--4-4-4-4-4-4-----------|
A|-7-----7h7--5--------7-------7--2-2-2-2-2-2-----------|
E|------------------------------------------------------|
  You don't need to bother;  I don't need to be 
e|------------------------------------------------------|
B|-8-----7h8--7--------1----1-1-1-------7----7-7-7------|
G|-9-----7h9--7--------0----0-0-0-------7----7-7-7------|
D|-9-----7h9--7--------2----2-2-2-------7----7-7-7------|
A|-7-----7h7--5--------3----3-3-3-------5----5-5-5------|
E|------------------------------------------------------|
I'll keep slipping farther, But once I hold on, I won't let go 'til it bleeds

Bridge
e|------------------------------------------------------|
B|-8--8--8-8-8-8-8--3--3--3-3-3-3-3--1--1--1-1-1-1-1----|
G|-9--9--9-9-9-9-9--2--2--2-2-2-2-2--0--0--0-0-0-0-0----|
D|-7--9--9-9-9-9-9--4--4--4-4-4-4-4--2--2--2-2-2-2-2----|
A|-7--7--7-7-7-7-7--2--2--2-2-2-2-2--3--3--3-3-3-3-3----|
E|------------------------------------------------------|

e|------------------------------------------------------|
B|-7--7--7-7-7-7-7--------------------------------------|
G|-7--7--7-7-7-7-7--------------------------------------|
D|-7--7--7-7-7-7-7--------------------------------------|
A|-5--5--5-5-5-5-5--------------------------------------|
E|------------------------------------------------------|

Solo
e|------------------------------------------------------|
B|-10p8p7-8~------7h8~----------------------------------|
G|-----------7h9-------9b--9b-----9--------7-9b---------|
D|----------------------------7h9--9--7h9---------------|
A|------------------------------------------------------|
E|------------------------------------------------------|

e|------------------------------------------------------|
B|-10b----8h10p8p7--------------------------------------|
G|-----------------------------7h9----------------------|
D|------------------------------------------------------|
A|-----------------------5h7~---------------------------|
E|-------------------5h7--------------------------------|

Outro
e|------------------------------------------------------|
B|-7h8--7-7h8-----8--7---7h8-----8--7---7h8-----8--7---7|
G|-7h9--7----9h7--9--7------9h7--9--7------9h7--9--7---9| Let ring...
D|-7h9--7-------9-9--7---------9-9--7---------9-9--7---9|
A|-7h---7---------7--7-----------7--7-----------7--7---8|
E|------------------------------------------------------|

Order:

Intro
Verse
Chorus
Intro
Verse
Bridge
Chorus
Solo
Intro
Verse
Chorus
Chorus (Play last chord only once and let ring)
Outro


Additional Lyrics:

[Intro]
[Verse]
Wish I was too dead to cry
My self-affliction fades
Stones to throw at my creator
Masochists to which I cater

[Verse]
You don't need to bother;
I don't need to be 
I'll keep slipping farther
But once I hold on,
I won't let go 'til it bleeds

[Intro]
[Verse]
Wish I was too dead to care
If indeed I cared at all
Never had a voice to protest
So you fed me shit to digest

[Bridge]
I wish I had a reason;
my flaws are open season
For this, I gave up trying
One good turn deserves my dying

[Chorus]
You don't need to bother;
I don't need to be
I'll keep slipping farther
But once I hold on,
I won't let go 'til it bleeds

[Solo]

[Verse]
Wish I'd died instead of lived
A zombie hides my face
Shell forgotten
with its memories
Diaries left
with cryptic entries

[Chorus]
And you don't need to bother;
I don't need to be
I'll keep slipping farther
But once I hold on,
I won't let go 'til it bleeds

[Chorus]
You don't need to bother;
I don't need to be
I'll keep slipping farther
But once I hold on:
I'll never live down my deceit
[Outro]


Текст, аккорды и табулатура для песни "Bother", исполняет "Stone Sour".
Используемые в песне аккорды можно найти в разделе Как брать аккорды. Аккорды для шестиструнной гитары. Другие песни можно найти на нашем сайте, воспользовавшись алфавитным указателем вверху страницы.


 
Ошибка в тексте? Выделите ошибку и нажмите Ctrl+Enter