Song: Blotter
Artist: Stone Sour
Album: Stone Sour
Tabbed by: Christian / [email protected]

Tuning: B F# B E G# C#

PM - Palm mute
* - Harmonic
^ - Bend string


Intro
|--------------------------------------------------------|
|--------------------------------------------------------|
|-----------------7---------------------------5----------| x2
|-2-0-2-0-5-4-0-2-7-2--0-5-4--2-0-2-0-4-3-0-2-5-2--4-5-5-|
|-2-0-2-0-5-4-0-2-5-2--0-5-4--2-0-2-0-4-3-0-2-3-2--4-5-5-|
|-2-0-2-0-5-4-0-2---2--0-5-4--2-0-2-0-4-3-0-2---2--4-5-5-|


Verse
|-------------------------------------|
|-------------------------------------|
|----------------------------5*-5*-5*-| x4
|-3-2-0-5--3-2-3-2-0-5--3-2-----------|
|-3-2-0-5--3-2-3-2-0-5--3-2-----------|
|-3-2-0-5--3-2-3-2-0-5--3-2-----------|
PM- - -    - - - - -    - - 


Chorus - Play the 5s the 2nd and 4th time only
|-------------|
|-------------|
|-------------| x4
|-2--0-2-3--5-|
|-2--0-2-3--5-|
|-2--0-2-3--5-|


|-----------------------------------------|
|-----------------------------------------|
|-----------------------------------------| x2
|-3-3-3-3-3-3-3-3-3-3-2-2-2-2-2-2-2-2-2-2-|
|-3-3-3-3-3-3-3-3-3-3-2-2-2-2-2-2-2-2-2-2-|
|-3-3-3-3-3-3-3-3-3-3-2-2-2-2-2-2-2-2-2-2-|


Verse
|-------------------------------------|
|-------------------------------------|
|----------------------------5*-5*-5*-| x8
|-3-2-0-5--3-2-3-2-0-5--3-2-----------|
|-3-2-0-5--3-2-3-2-0-5--3-2-----------|
|-3-2-0-5--3-2-3-2-0-5--3-2-----------|
PM- - -    - - - - -    - - 


Chorus - Play the 5s the 2nd and 4th time only
|-------------|
|-------------|
|-------------| x4
|-2--0-2-3--5-|
|-2--0-2-3--5-|
|-2--0-2-3--5-|

|-----------------------------------------|
|-----------------------------------------|
|-----------------------------------------| x2
|-3-3-3-3-3-3-3-3-3-3-2-2-2-2-2-2-2-2-2-2-|
|-3-3-3-3-3-3-3-3-3-3-2-2-2-2-2-2-2-2-2-2-|
|-3-3-3-3-3-3-3-3-3-3-2-2-2-2-2-2-2-2-2-2-|


Bridge
|------------------------|      |-----|
|------------------------|      |-----|
|------------------------| x4   |-----| x1 (let ring)
|-5-2--0-2--5-2--0-2-----|      |--2--|
|-5-2--0-2--5-2--0-2-----|      |--2--|
|-5-2--0-2--5-2--0-2--2^-|      |--2--|


Interlude
|---------------------------------|
|---------------------------------|
|---------------------------------| x4
|-2-0-2-0-2-0-2-0-2-0-2-0-3-4-3-0-|
|-2-0-2-0-2-0-2-0-2-0-2-0-3-4-3-0-|
|-2-0-2-0-2-0-2-0-2-0-2-0-3-4-3-0-|
PM- - - - - - - - - - - - - - - -


|-----------------------------------------|
|-----------------------------------------|
|-----------------------------------------| x4
|-3-3-3-3-3-3-3-3-3-3-2-2-2-2-2-2-2-2-2-2-|
|-3-3-3-3-3-3-3-3-3-3-2-2-2-2-2-2-2-2-2-2-|
|-3-3-3-3-3-3-3-3-3-3-2-2-2-2-2-2-2-2-2-2-|

Outro
|------------------------|
|------------------------|
|------------------------| x8
|-5-2--0-2--5-2--0-2-----|
|-5-2--0-2--5-2--0-2-----|
|-5-2--0-2--5-2--0-2--2^-|


Текст, аккорды и табулатура для песни "Blotter", исполняет "Stone Sour".
Используемые в песне аккорды можно найти в разделе Как брать аккорды. Аккорды для шестиструнной гитары. Другие песни можно найти на нашем сайте, воспользовавшись алфавитным указателем вверху страницы.


 
Ошибка в тексте? Выделите ошибку и нажмите Ctrl+Enter