#----------------------------------PLEASE NOTE---------------------------------#
#This file is the author's own work and represents their interpretation of the #
#song. You may only use this file for private study, scholarship, or research. #
#------------------------------------------------------------------------------##
~From: [email protected] (R. Porter)
~Subject: TAB: This is the one (Stone Roses)

I can't work out many words to this song, and would be
grateful if anyone could tell me them.

Capo on fret 2 (fingering refers to fret 2 position)


e-----------------|--------------2|2--------------|--------------2|
B--------3-----3--|3---3---3-----3|3-----3-----3--|3---3---3-----3|
G------2---2-0----|--0-------0---2|2---2---2-0----|--0-------0---2|
D----------------4|------4-----4-0|0-------------4|------4-----4-0|
A-----------------|--------------0|0--------------|--------------0|
E-----------------|--------------2|2--------------|--------------2|


                  (7 bars rest here)
e--2--------------|---------------|---------------|---------------|
B--3--------------|---------------|--3-----3-----3|----3----------|
G--2--------------|---------------|----0-----0----|0-----0--------|
D--0--------------|---------------|------4-----4--|--4-------4-2-0|
A--0--------------|---------------|5--------------|--------5------|
E--2--------------|---------------|---------------|---------------|

e-----------------|---------------|--------0------|--------2-0----|
B----------3-----2|----0-----0----|----3-----3----|----3-------3-2|
G----2-------2----|2-----2-----2--|------0-----0--|------2--------|
D------2-------2--|--2-----2-----2|---------------|---------------|
A--0-----0--------|---------------|---------------|---------------|
E-----------------|---------------|3--------------|0--------------|


                                  (rpt)(2nd time only power chords)
e--2--------------|------3---3---3|2--------------|---------------|
B--3--------------|------3---3---3|3--------------|---------------|
G--2--------------|------2---2---2|2--------------|---------------|
D--0--------------|------0---0---0|0--------------|----------4-2-0|
A-----------------|------0---0---0|0--------------|---------------|
E-----------------|---------------|2--------------|---------------|

e-----------------|---------------|--------0------|--------2-0----|
B----------3-----2|----0-----0----|----3-----3----|----3-------3-2|
G----2-------2----|2-----2-----2--|------0-----0--|------2--------|
D------2-------2--|--2-----2-----2|---------------|---------------|
A--0-----0--------|---------------|---------------|0--------------|
E-----------------|---------------|3--------------|---------------|


                                  (x2)
e--2--------------|------3---3---3||2--------------|---------------|
B--3--------------|------3---3---3||3--------------|---------------|
G--2--------------|------2---2---2||2--------------|---------------|
D--0--------------|------0---0---0||0--------------|----------4-2-0|
A-----------------|------0---0---0||0--------------|---------------|
E-----------------|---------------||2--------------|---------------|

e-----------------|---------------|--------0------|--------2-0----|
B----------3-----2|----0-----0----|----3-----3----|----3-------3-2|
G----2-------2----|2-----2-----2--|------0-----0--|------2--------|
D------2-------2--|--2-----2-----2|---------------|---------------|
A--0-----0--------|---------------|---------------|0--------------|
E-----------------|---------------|3--------------|---------------|

e--2--------------|------3--------|2--------------|--------------2|
B--3--------------|------3--------|3-----3-----3--|3---3---3-----3|
G--2--------------|------2--------|2---2---2-0----|--0-------0---2|
D--0--------------|------0--------|0-------------4|------4-----4-0|
A-----------------|------0--------|0--------------|--------------0|
E-----------------|---------------|2--------------|--------------2|

e--2--------------|--------------3|3--------------|-----------------|
B--3-----3-----3--|3---3---3-----0|0--------------|-----------------|
G--2---2---2-0----|--0-------0---0|0--------------|----0-0---0------|
D--0-------------4|------4-----4-0|0--------------|2h4-----4---4-2-0|
A--0--------------|--------------2|2--------------|-----------------|
E--2--------------|--------------3|3--------------|-----------------|


(rpt)
e-----------------|---------------|--------0------|--------2-0----|
B----------3-----2|----0-----0----|----3-----3----|----3-------3-2|
G----2-------2----|2-----2-----2--|------0-----0--|------2--------|
D------2-------2--|--2-----2-----2|---------------|---------------|
A--0-----0--------|---------------|---------------|0--------------|
E-----------------|---------------|3--------------|---------------|

                   _______________
(3rd time miss out|               |)                              x3
e--2--------------|2--------------|---------------|---------------||
B--3--------------|3--------------|--3-----3-----3|----3----------||
G--2--------------|2-----0-0-0----|----0-----0----|0-----0--------||
D--0--------------|0-0-4-------4-0|------4-----4--|--4-------4-2-0||
A-----------------|0--------------|5--------------|--------5------||
E-----------------|2--------------|---------------|---------------||

e-----------------|---------------|--------0------|--------2-0----|
B----------3-----2|----0-----0----|----3-----3----|----3-------3-2|
G----2-------2----|2-----2-----2--|------0-----0--|------2--------|
D------2-------2--|--2-----2-----2|---------------|---------------|
A--0-----0--------|---------------|---------------|0--------------|
E-----------------|---------------|3--------------|---------------|

e--2--------------|---then chords: 1.5 bars D ----------------------.. 4 bars D, 4 bars A,
B--3--------------|-------                     2 bars G, 2 bars A --..x3,
G--2--------------|-------                    ----------------------.. 4 bars G, 4 bars D,
D--0--------------|-------                     4 bars A .-----------..
A-----------------|-------------------------------------------------..                     ..4 bars D, 4 bars A,
E-----------------|-------                     2 bars G, 2 bars A --..x2.


Текст, аккорды и табулатура для песни "This Is The One", исполняет "Stone Roses".
Используемые в песне аккорды можно найти в разделе Как брать аккорды. Аккорды для шестиструнной гитары. Другие песни можно найти на нашем сайте, воспользовавшись алфавитным указателем вверху страницы.


 
Ошибка в тексте? Выделите ошибку и нажмите Ctrl+Enter