THE STONE ROSES - TEARS

INTRO
e---------------------------------------------------|
B-------3----------------------3---3h5-3------------|
G---------2------------------0----------------------|
D--0-0------4-4h5p4-2-0----------------------0-2b-0-|
A-----------------------0-3------2-------0h2--------|
E---------------------------------------------------|

e---------------------------------------------------|
B-------3-------------------1---------0-------------|
G---------2--------------------0--------------------|
D--0-0------4-4h5p4-2-0-----------0---0------0-2b-0-|
A-----------------------0-3----3----2-2--0h2--------|
E---------------------------------------------------|

e---------------------------------------------------|
B-------3----------------------3---3h5-3------------|
G---------2------------------0----------------------|
D--0-0------4-4h5p4-2-0----------------------0-2b-0-|
A-----------------------0-3------2-------0h2--------|
E---------------------------------------------------|

e---------------------------------------------------|
B-------3-------------------------------------------|
G---------2-------------------0---0----0------------|
D--0-0------4-4h5p4-2-0----------------------0-2b-0-|
A-----------------------0-2h3---3---3-2--0h2--------|
E---------------------------------------------------|

LINK (2:13)
e--------------------------------------------------|
B------3-------------------------------------------|
G--------2-----------------0-------0---------------|
D--0-0-----4-4h5p4-2-0-------0-----------5--4--2---|
A----------------------0-3-----3-2----2--3--2--0---|
E------------------------------------------------3-|

   Am G  Fmaj7 G       (2:28)                   Am G  Fmaj7 G  Dm Am G
e--0--3--0-----3-|    |-------------------------0--3--0-----3--5--0--3-|
B--1--0--1-----0-|    |----------0---0-0h1p0----1--0--1-----0--6--1--0-|
G--2--0--2-----0-| X2 |--2-2-0-2---2---------2--2--0--2-----0--5--2--0-|
D--2--0--3-----0-|    |-------------------------2--0--3-----0--7--2--0-|
A--0--2--------2-|    |-------------------------0--2--------2--5--0--2-|
E-----3--------3-|    |----------------------------3--------3--------3-|

SOLO

(3:46)
e----------------------------------|-------------------------------------|
B----------------------------------|-------------------------------------|
G-----------------5----------------|-------------------------------------|
D--5h7-7-7-7--7-7---7-5--5h7p5---5-|--5h7p5---5-------5--5---------------|
A------------------------------7---|--------7---7-5--------7-5-5h7p5-----|
E----------------------------------|----------------8----------------8-7-|

e-----------------------------------|---------------------------------------------------|
B--------------------------------13-|---------------------------------------------------|
G-----------------------------------|-14p12-------------12--12--------------------------|
D-------------10-12-----------------|-------14-12-12h14--------14-12-10--10h12p10-------|
A--------------------------10-12----|---------------------------------------------12-10-|
E--5-5--15p7--8--10--12-12----------|---------------------------------------------------|

e-----------------------------------|------------------------------------------------------|
B-----------------------------------|------------------------------------------------------|
G-------------9-------------------9-|-------------------------9-12--9----------------------|
D---------------12b14r12/10---------|-12b14r12/10----10-10-12---------12-10-10h12p10-------|
A--10-12---12---------------12-12---|-------------12---------------------------------12-10-|
E-----------------------------------|------------------------------------------------------|

e------------------------------------|-------------------------------------------------|
B------------13----------------------|-------------------------------------------------|
G---------------14b15r14/12-------14-|-14p12-------------12-12-------------------------|
D---------------------------14-14----|-------14-14-12-14-------14-12-10-10h12p10-------|
A--10-12--12-------------------------|-------------------------------------------12-10-|
E------------------------------------|-------------------------------------------------|

e-----------------------------------------12--------------------------|
B--------------------------13----13-13h15----15-13-15b17r15/13--------|
G-----------------12-12-14----14--------------------------------14-12-|
D--------10-12-14-----------------------------------------------------|
A--10-12--------------------------------------------------------------|
E---------------------------------------------------------------------|

e--15b17r15/12----12-------------------15-15----15-17-17-15-|-15b17--15b17/10-|
B--------------15----15-13----13-15h17-------17-------------|-----------------|
G--------------------------14-------------------------------|-----------------|
D-----------------------------------------------------------|-----------------|
A-----------------------------------------------------------|-----------------|
E-----------------------------------------------------------|-----------------|

e--------12-12--x5x--x5x-12--10--8--7-0-|
B---------------------------------------|
G--12b14--------------------------------|
D---------------------------------------|
A---------------------------------------|
E---------------------------------------|

e-------------------------------------------------------------------------|
B--------0h1---------------------------------------------0h1--0---0-0-0-0-|
G--2---2-----2-2----0h2p0h2p0--2-5--4x-2x--0h2-0h2-2---2----------2-2-2-2-|
D----2-----------2-----------------------------------2----------------2-2-|
A-----------------------------------------------------------------------2-|
E-------------------------------------------------------------------------|

e---------------------------------------------------------------|
B---------------------------------------------------------------|
G---------------------------------------------------------------|
D--0h2p0--0h2p0---0-2-0-----------------------------------------|
A---------------3-------3---------------------------------------|
E-------------------------3-3h5-5-5h7-7-7h8-8/17--5-5/12--12p10-|

e-------------------------------------------------------------------------------------------------|
B-8-10-10-8-8-10-10x-10x-12-12-12-12x-12-12-12-13-13-13-13-12-13-13-13-15-15-15-15-13-------------|
G-------------------------------------------------------------------------------12-10-------12----|
D-5-7--7--5-5-7--7x--7x--9--9--9--9x--9--9--9--10-10-10-10-9--10-10-10-12-12-12-12-10-12h14----14-|
A-------------------------------------------------------------------------------------------------|
E-------------------------------------------------------------------------------------------------|

e-------------------------------------------------------------------------------------------------|
B-8-10-10-8-8-10-10x-10x-12-12-12-12x-12-12-12-13-13-13-13-12-13-13-13-15-15-15-15-13-------------|
G-------------------------------------------------------------------------------12-10-------12----|
D-5-7--7--5-5-7--7x--7x--9--9--9--9x--9--9--9--10-10-10-10-9--10-10-10-12-12-12-12-10-12h14----14-|
A-------------------------------------------------------------------------------------------------|
E-------------------------------------------------------------------------------------------------|

e-----------------------12------------------13-13-13-12-10-10h12p10----10----------------|
B--------------------------15-13-15b-13-----------------------------13----13-12-10----10-|
G--12h14-14-14-14-14-14-----------------14-----------------------------------------12----|
D----------------------------------------------------------------------------------------|
A----------------------------------------------------------------------------------------|
E----------------------------------------------------------------------------------------|

BACKING TO BRIDGE AFTER SOLO
e--------------------------------------------------------------------x0x0x0x0x0x0x-|
B--108----5---------------------------------------------------------x0x0x0x0x0x0x-|
G------------7-5--5h7p5p4---------------------------7h9-9p7----------x0x0x0x0x0x0x-|
D-------------------------5-5h7--72----5/9----5h7----------5h7-7-9----------------|
A----------------------------------------------------------------------------------|
E----------------------------------------------------------------------------------|

OUTRO
e---------------------|
B------1----------1---|
G----2---2------2---2-|
D--3--------0h2-------|
A---------------------|
E---------------------|

e-------------------------------------2-|
B---------0h1-0---0--------0h1-0---0--3-|
G-------0-------0--------0-------0----2-|
D-----0----------------0--------------0-|
A---------------------------------------|
E--3-----------------3------------------|

e--3p2-3p2---5-5-5--3-2--2h3p2p0----0----------------|
B----------3----------------------3---3-3-1--3--3--3-|
G----------------------------------------------------|
D--------------------------------------------0--0----|
A----------------------------------------------------|
E----------------------------------------------------|

e--3p2-3p2---7-7-7-5-3-3h5p3p2h3p2-0-0---0-|
B----------3---------------------------3---|
G------------------------------------------|
D------------------------------------------|
A------------------------------------------|
E------------------------------------------|

e-----------------------------2------------------------------2-|
B-----------------------------3------------------------------3-|
G----0------------------------2-----0------------------------2-| X2
D------0---------0-0h2p0---0--0-------0---------0-0h2p0---0--0-|
A--3-----3-2-0h2---------2--------3-----3-2-0h2---------2------| repeat until fade
E--------------------------------------------------------------|


Текст, аккорды и табулатура для песни "Tears", исполняет "Stone Roses".
Используемые в песне аккорды можно найти в разделе Как брать аккорды. Аккорды для шестиструнной гитары. Другие песни можно найти на нашем сайте, воспользовавшись алфавитным указателем вверху страницы.


 
Ошибка в тексте? Выделите ошибку и нажмите Ctrl+Enter