Stone Roses
Sally Cinnamon
ct

Intro riff: 

E----------------------------------------------------------------
B---------3--------------------------------------------------3---
G--------------5----4-----5---4-----5---4----5---4---2---0-------
D---5------------------------------------------------------------ X2
A----------------------------------------------------------------
E----------------------------------------------------------------

Verse: 

Up till ...
I needed ...
Red clouds ...
For all ...

Guitar riff:
E----------------------------------------------------------------
B---------------12------------------12---------------------------
G-----12---14--------14---12---14--------14---12-----------------
D----------------------------------------------------------------
A----------------------------------------------------------------
E----------------------------------------------------------------

E----------------------------------------------------------------
B-------------5---------------5----------------------------------
G-----5---7-------7---5---7-------7---5--------------------------
D----------------------------------------------------------------
A----------------------------------------------------------------
E----------------------------------------------------------------

Second riff:

E----------------------------------------------------------------
B---------------12--------13---12------------------12------------
G-----12---14--------14-------------14---12---14--------14---12--
D----------------------------------------------------------------
A----------------------------------------------------------------
E----------------------------------------------------------------

E----------------------------------------------------------------
B-------------5---------------5----------------------------------
G-----5---7-------7---5---7-------7---5--------------------------
D----------------------------------------------------------------
A----------------------------------------------------------------
E----------------------------------------------------------------

Solo:

E------------------------------------------------------------------
B------------------------------------------13-----12---------------
G---2--/---12------12-----14----12--------------------12----12--12-
D------------------------------------------------------------------
A------------------------------------------------------------------
E------------------------------------------------------------------

E-----------------------------------------------------------------
B--13---12------------13-----12-------------13---12---------------
G---------------12---------------------12-----------------12------
D-----------------------------------------------------------------
A-----------------------------------------------------------------
E-----------------------------------------------------------------

E-----------------------------------------------------------------
B-----------------------------------------------------------------
G--12--12---12-----12----14---12----14----12---14---12--12--------
D-----------------------------------------------------------------
A-----------------------------------------------------------------
E-----------------------------------------------------------------

E-----------------------------------------------------------------
B--13---12--------------------------------15--15--15--15----------
G----------------12-------12--12--12------------------------------
D-----------------------------------------------------------------
A-----------------------------------------------------------------
E-----------------------------------------------------------------

E-----------------------------------------------------------------
B--13---12-----13-----12------------------------------------------
G---------------------------------12------------------------------
D-----------------------------------------------------------------
A-----------------------------------------------------------------
E-----------------------------------------------------------------

The end is just C chord D chord and G chord

Listen to the song to see how many times you play each riff


Текст, аккорды и табулатура для песни "Sally Cinnamon", исполняет "Stone Roses".
Используемые в песне аккорды можно найти в разделе Как брать аккорды. Аккорды для шестиструнной гитары. Другие песни можно найти на нашем сайте, воспользовавшись алфавитным указателем вверху страницы.


 
Ошибка в тексте? Выделите ошибку и нажмите Ctrl+Enter