Em                Hm                 Am                       H
      3002x0            20x0xx             01220x                   23332x
e--3--------3-----|--2--------2-----|--0--------0-----|--0-----0--|--------|--
B--------0-----0--|--------0-----0--------|--4-----|--
G-----------------------|--------2-----2--|-----4--|--
D--2--2-----------|--0--0-----------------|--------|--
A-----------------------|--0--0-----------|--0--0-----|--2-----|--
E-----------------------------|--------|--

       C/E                Hm                 Am                       H
      3102x0            20x0xx             01220x                  23332x
e--3--------3-----|--2--------2-----|--0--------0-----|--0-----0--|--------|--
B--------1-----1--|--------0-----0--------|--4-----|--
G-----------------------|--------2-----2--|-----4--|--
D--2--2-----------|--0--0-----------------|--------|--
A-----------------------|--0--0-----------|--0--0-----|--2-----|--
E-----------------------------|--------|--

           C                                H7          C        B7 ?   Em
         35553x                           24242x      35553x   00212x 00220
e---------------3----------|--0--|--0--|-
B---------5--------5-----|-------1--0--|--------4--|--5--5--5--|--0--|--0--|-
G---------------------5--|-------0--0--|--------2--|--5--5--5--|--2--|--0--|-
D------5-----5-----------|-------0--0--|-----4-----|--5--5--5--|--1--|--2--|-
A---3--------------------|--2^0--------|--2--------|--3--3--3--|--2--|--2--|-
E------------------------|-------3--3--|--0--|--0--|-


He deals the cards as a meditation
And those he plays never suspect
He doesn´t play for the money he wins
He doesn´t play for respect

He deals the cards to find the answer
The sacred geometry of chance
The hidden law of a probable outcome
The numbers lead a dance

I know that the spades are swords of a soldier
I know that the clubs are weapons of war
I know that diamonds mean money for this art
But that´s not the shape of my heart

He may play the jack of diamonds
He may lay the queen of spades
He may conceal a king in his hand
While the memory of it fades

I know that the spades are swords of a soldier
I know that the clubs are weapons of war
I know that diamonds mean money for this art
But that´s not the shape of my heart

Em  Em7  C              B7
         That´s not the shape    The shape of my heart

And if I told you that I loved you
You´d maybe think there´s something wrong
I´m not a man of too many faces
The mask I wear is one

Those who speak know nothing
And find out to their cost
Like those who curse their luck in too many places
And those who smile are lost

I know that the spades are swords of a soldier
I know that the clubs are weapons of war
I know that diamonds mean money for this art
But that´s not the shape of my heart

Em  Em7  C               B7         Em
         That´s not the shape of my heart
    Em7  C              B7
         That´s not the shape   The shape of my heart

e----12--|--
B---12---|--
G--12----|--


Текст, аккорды и табулатура для песни "Shape Of My Heart", исполняет "Sting".
Используемые в песне аккорды можно найти в разделе Как брать аккорды. Аккорды для шестиструнной гитары. Другие песни можно найти на нашем сайте, воспользовавшись алфавитным указателем вверху страницы.


 
Ошибка в тексте? Выделите ошибку и нажмите Ctrl+Enter