---------|----------|-----1210-7--------- 
-------10|-10/12------8|-1012--1510|------10|-10/12------------- 
-----7-------|----7----------- 
-7/9---------|7/9------------- 
------------------ 
------------------ 
 Part A.   Neck pickup (w/dist.) 

-1210-7---|---------|---------|-1210-7-------------- 
---------8|-10/12-15p10|-------10|-10/12---|---------8|-10/12--1510---------- 
-----------|-----7---|-------------------- 
-----------|-7/9-----|-------------------- 
-----------|---------|-------------------- 
-----------|---------|-------------------- 
  

-1210-7---------------------------------- 
---------8|-10/12-12-1210-10|-10--5/8-7------------------------- 
------------------9-7|-7/9------------9-------------- 
------------------------------------------ 
------------------------------------------ 
------------------------------------------ 
  

---------|-------|-10b12r10-7------------- 
-------10|-10b12v-8|-10b12v-15-10|-------10|-10b12--------------- 
-----7----|-----7------------- 
-7/9------|-7/9--------------- 
------------------ 
------------------ 
 Bridge Pickup 

----10b12r10b12r10-7--|--------10--------------------------------- 
---------------------8|-10b12v----10b8r10--15p10-----10b12--12-12r10-10p8----- 
------------------------------------------------------ 
-7v------------------------------|----0--------------------------- 
-7v------------------------------|----0--------------------------- 
------------------------------------------------------ 
 PM         slowly                 w/bar          PM hold bend (HB) 

------------------------------------------ 
-10----b----12vv|-vvv-----15b17r15-12|----1510-10v|-vv--


Текст, аккорды и табулатура для песни "For The Love Of God", исполняет "Steve Vai".
Используемые в песне аккорды можно найти в разделе Как брать аккорды. Аккорды для шестиструнной гитары. Другие песни можно найти на нашем сайте, воспользовавшись алфавитным указателем вверху страницы.


 
Ошибка в тексте? Выделите ошибку и нажмите Ctrl+Enter