*Capo 4th Fret*  Standard Tuning EADGBe

Intro:

e----------------------------------------------------------------------------
B----------------------------------------------------------------------------
G----------------------------------------------------------------------------
D----------------------------------------------------------------------------
A-2h3-2---0--0-0-3--3-3-2--2-2--2h3-2---0--0-0-3--3-3-2--2-2--2h3-2----------
E-------3-----------------------------3-----------------------------3--------


Verse 1:


  A     Em                       A     Em
e-0-0-0-0-0----------------------0-0-0-0-0-----------------------------------
B-2-2-2-0-0----------------------2-2-2-0-0-----------------------------------
G-2-2-2-0-0------2---------------2-2-2-0-0-------2---------------------------
D-2-2-2-2-2--4-------4---0-------2-2-2-2-2--4---------4---0------------------
A-0-0-0-2-2----------------------0-0-0-2-2-----------------------------------
E-0-0-0--------------------------0-0-0---------------------------------------

 I   -   Id Just Like to say      I   -   I remember the day 

  A     Em 
e-0-0-0-0-0--------------------0-----0-----0------------------
B-2-2-2-0-0----------------------3-----3-----3----------------
G-2-2-2-0-0------------------------2-------------0-2-0--------
D-2-2-2-2-2---0----0---------------------4-------------4-0----
A-0-0-0-2-2-------------4----0--------------------------------
E-0-0-0-------------------------------------------------------

         I  First woke with you 


Just play the same tab but with these lyrics:

Some days I have to admit,
the way we happened to meet, 
was strange because it was new.  


Verse/Chorus fill.

e-----------------
B------3-3--------
G--2-4-----4-2----
D-----------------
A-----------------
E-----------------


Chorus:
        A                       Bm                     A
e-------0-----0-----0-----0-----2-----2-----2-----2-----0----------------------
B-------2-----2-----2-----2-----3-----3-----3-----3-----2----------------------
G-------2-----2-----2-----2-----3-----3-----3-----3-----2----------------------
D-------2-----2-----2-----2-----4-----4-----4-----4-----2----------------------
A-3-2---0-----0-----0-----0-----2-----2-----2-----2-----0----------------------
E-----3-0-----0-----0-----0-----2-----2-----2-----2-----0----------------------

        I'm not drinking  no  more     Not drinking no less



Repeat the same with these lyrics:


A              Bm                   A  
Not sleepy at all, never in the same bed

                 Bm                          G
Undressed at the bar, engraved bench in the park 
   G  
e--3----3----3---------------------------------------------------------------
B--0----0----0---------------------------------------------------------------
G--0----0----0---------------------------------------------------------------
D--0----0----0---------------------------------------------------------------
A--2----2----2------------2h3-2---0--0-0-3--3-3-2--2-2-2h3-2---0--0-0-3--3-3-
E--3----3----3------------------3----------------------------3---------------

   Watch Them Fly _  Sundays 


e------------------
B------------------
G------------------
D------------------
A-2--2-2-2h3-2-----
E--------------3---


Verse 2:

Same as before but with these lyrics:

Fly, Birds around my head again,
laughed at the words you sent,
I pushed the boat back to you,
I flew from the rain again,
Killed you with what I said,
You, already knew


Verse/Chorus Link: (same as before)


Chorus: (Same as before)


Solo:

e----------------------------------------------------------------------|----
B----------------------------------------------------------------------|----
G-2--2b3-3-2-----2--2b3-3-2----2--2b3-3-2------------------------------|----
D------------2--------------2-------------2--2-2-2b3-0--2b3-0--2b3-0-0-|4-2-
A----------------------------------------------------------------------|----
E----------------------------------------------------------------------|----

e------------------------------------
B------------------------------------
G-0-2----------0-2---------0-0-------
D-----4-0--4-2-----4-0---2-----4-0---
A----------------------0-------------
E------------------------------------


Verse 3: (use tab from verse 1 as done with verse 2)

They say, if something should fly away,
And flies back to you again,
Then its yours.


End with:

e----------
B----------
G--0-2-----
D------4-0-
A----------
E----------


Please comment [email protected] 
Enjoy!!


Текст, аккорды и табулатура для песни "Watch Them Fly Sundays", исполняет "Stereophonics".
Используемые в песне аккорды можно найти в разделе Как брать аккорды. Аккорды для шестиструнной гитары. Другие песни можно найти на нашем сайте, воспользовавшись алфавитным указателем вверху страницы.


 
Ошибка в тексте? Выделите ошибку и нажмите Ctrl+Enter