I noticed that a tab for this old Stereophonics song doesn't exist, and it is a
classic song by them, so I found a tab for it and I've kept all the details up of
the creator if you need to contact.  It all seems good and looks like it's out of
a book. It's my fav alongside 'A thousand trees' by them.  so enjoy.

p.s. is it only me that finds it strange an e-mail address refering to a slipknot
song and he's tabbing Stereophonics?

Author/Artist: Stereophonics
Title: Traffic
Album: Word Gets Around
Transcribed by: (sic)
Email: [email protected]

INTRO:
-|-----------3---------------------3----------------------------------------|-
-|--1--1h3p1-1---1--1--1-----1h3p1-1---1--1--1---1--1-----1--1-----1--------|-
-|--0--0---------0--0--0--0--0---------0--0--0---0--0h2p0-0--0h2p0-0--------|-
-|--2--2---------2--2--0--2--2---------2--0--0---3--3-----3--3--------------|-
-|--3--3---------3--------0----------------------3--------------------------|-
-|--------------------------------------------------------------------------|-
                                                                              

-|-----------3--------------------------------------------------------------|-
-|-----1h3p1-1--------------------------------------------------------------|-
-|-----0-----0--------------------------------------------------------------|-
-|--2--2--------------------------------------------------------------------|-
-|--3-----------------------------------------------------------------------|-
-|--------------------------------------------------------------------------|-
                                                                              
  VERSE:

-|--------------------------------------------------------------------------|-
-|--1-1-1-1--1-1-1-1--1-1-1-1--1h3p1----------------------------------------|-
-|--0-0-0-0--2-2-2-2--0-0-0-0--0--------------------------------------------|-
-|--2-2-2-2--2-2-2-2--3-3-3-3--2--------------------------------------------|-
-|--3-3-3-3--0-0-0-0--3-3-3-3--3--------------------------------------------|-
-|--------------------------------------------------------------------------|-
   
  PRE-CHORUS:                                                                           

-|-----------------------------1-1-1-1-1-1-1-1------------------------------|-
-|--1-1-1-1--1-1-1-1--1-1-1-1--3-3-3-3-3-3-3-3--1---------------------------|-
-|--0-0-0-0--2-2-2-2--0-0-0-0--2-2-2-2-2-2-2-2--0---------------------------|-
-|--2-2-2-2--2-2-2-2--3-3-3-3-------------------2---------------------------|-
-|--3-3-3-3--0-0-0-0--3-3-3-3-------------------3---------------------------|-
-|--------------------------------------------------------------------------|-
                                                                              
  CHORUS:

-|-----------1-1-1-1----------------------------1-1-1-1-1-1-1-1-------------|-
-|--1-1-1-1--3-3-3-3--1-1-1-1----------1-1-1-1--3-3-3-3-3-3-3-3-------------|-
-|--0-0-0-0--2-2-2-2--0-0-0-0----------0-0-0-0--2-2-2-2-2-2-2-2-------------|-
-|--3-3-3-3-----------2-2-2-2----------3-3-3-3------------------------------|-
-|--3-3-3-3-----------3-3-3-3----------3-3-3-3------------------------------|-
-|--------------------------------------------------------------------------|-
                                                                              
  SOLO:

-|--------------------------------------------------------------------------|-
-|-3--3----3-3------------1----1------------------1-------------------------|-
-|-0--2----2-0-------0----0h2--0------2---0---0---0-------------------------|-
-|-0-------0-0---0---3----3----3------3---2---0-----------------------------|-
-|-------------------3----------------------------3-------------------------|-
-|-3-----------------1------------------------------------------------------|-
                                                                              

-|--------------------------------------------------------------------------|-
-|----2---3----3-----1-------------1----1----------1----1-----1----1--------|-
-|-0--3---0h2--0--0--0-------------0----0----------0----0-----0----0--------|-
-|-0------0----0--0--3----------3--2h3--3----------2h3--3-----2h3--3--------|-
-|-------------------3----------3---------3-----3-----------3----------3----|-
-|-3-----------------1----------1---------1-----1-----------1----------1----|-
                                                                              

-|--------------------------------------------------------------------------|-
-|-----1----1---------------------------------------------------------------|-
-|-----0----0-----------0---------------------------------------------------|-
-|-----2h3--3-----------2h3h2-0------2--------------------------------------|-
-|--3----------3-----3---------------3--------------------------------------|-
-|--1----------1-----1------------------------------------------------------|-
          
  POST-SOLO:                                                                    

-|--------------------------------------------------------------------------|-
-|--1-1-1-1--1-1-1-1--1-1-1-1--1-1-1-1--------------------------------------|-
-|--0-0-0-0--0-0-0-0--2-2-2-2--0-0-0-0--------------------------------------|-
-|--2-2-2-2--3-3-3-3--2-2-2-2--2-2-2-2--------------------------------------|-
-|--3-3-3-3--3-3-3-3--0-0-0-0--3-3-3-3--------------------------------------|-
-|--------------------------------------------------------------------------|-


Текст, аккорды и табулатура для песни "Traffic", исполняет "Stereophonics".
Используемые в песне аккорды можно найти в разделе Как брать аккорды. Аккорды для шестиструнной гитары. Другие песни можно найти на нашем сайте, воспользовавшись алфавитным указателем вверху страницы.


Слушать онлайн Traffic


StereophonicsTraffic на Яндекс.Музыке


 
Ошибка в тексте? Выделите ошибку и нажмите Ctrl+Enter