-----------------------------------------------------------------------------
			     Mdame Helga - Stereophonics
-----------------------------------------------------------------------------
Tabbed by: Barney (Furry Monkey)

Tuning: Standard
this is 100% correct!!!

intro:

w/dist

e|-7-----7-7-7-7--5-2------------------7-------7---7-7---------
B|-10b12-------10-----7-9-7---0-10b12-10b12--10b12---10-10-7-7-
G|----------------------9-7------------------------------------
D|--------------------------9----------------------------------
A|-------------------------------------------------------------
E|-------------------------------------------------------------

e|---------------7-------7-7-----------------------------------
B|-------0-10b12---10b12---10-10-7-7---------------------------
G|-9-7---0---------------------------9-7-----------------------
D|-----9---------------------------------9---------------------
A|-------------------------------------------------------------
E|-------------------------------------------------------------

      e|---10------10------10-------10-------10-------10-10----10----10----10-
      B|-0---10b12----10b12---10b12----10b12----10b12----10b12-10b12-10b12-12-
gtr 1 G|-0--------------------------------------------------------------------
      D|----------------------------------------------------------------------
      A|----------------------------------------------------------------------
    / E|----------------------------------------------------------------------
   |         played at the same time
     e|--------------------------------------------------------------------
      B|----9-----------9---------------------------------------------------
gtr 2 G|----9---9---7-----9---9---7------9--7-------------------------------
      D|--------------9-------------9---------9~~~~~~~~~~~----------------9
      A|--------------------------------------------------------------------
      E|--------------------------------------------------------------------

verse 1:

      e|-------------------------------------------------------------
      B|-----------------------------------------------2-------------
gtr 1 G|-2-2-x-x-x-x-x-2-2-2-x-x-x-x-x-----------------2---2-4-------
      D|-4-4-x-x-x-x-x-4-4-4-x-x-x-x-x-------0-2-0-3-4---4-----------
      A|-2-2-x-x-x-x-x-2-2-2-x-x-x-x-x-0-2-2-------------------------
      E|-------------------------------------------------------------
wah      + + o o + + o o + + o o + + o o + + o o + + o o + + o o + +
      e|-------------------------------------------------------------
      B|-------------------------------------------------------------
gtr 2 G|-4-4-4-4-4-4-4-4-4-4-4-4-4-4-4-4-4-4-4-4-4-4-4-4-4-4-4-4-4-4-
      D|-------------------------------------------------------------
      A|-------------------------------------------------------------
      E|-------------------------------------------------------------

      e|-------------------------------------------------------------
      B|-------------------------------------------------------------
gtr 1 G|-2-2-x-x-x-x-x-2-2-2-x-x-x-x-x-------------------------------
      D|-4-4-x-x-x-x-x-4-4-4-x-x-x-x-x-------0-2-0-3-4-2-2-0---------
      A|-2-2-x-x-x-x-x-2-2-2-x-x-x-x-x-0-2-2-----------------2-0-----
      E|-------------------------------------------------------------
         o o + + o o + + o o + + o o + + o o + + o o + + o o +   + o
      e|-------------------------------------------------------------
      B|-------------------------------------------------------------
gtr 2 G|-4-4-4-4-4-4-4-4-4-4-4-4-4-4-4-4-4-4-4-4-4-4-4-4-4-4-4---4-4-
      D|-------------------------------------------------------------
      A|-------------------------------------------------------------
      E|-------------------------------------------------------------

      e|-------------------------------------------------------------
      B|-----------------------------------------------2-------------
gtr 1 G|-2-2-x-x-x-x-x-2-2-2-x-x-x-x-x-----------------2---2-4-------
      D|-4-4-x-x-x-x-x-4-4-4-x-x-x-x-x-------0-2-0-3-4---4-----------
      A|-2-2-x-x-x-x-x-2-2-2-x-x-x-x-x-0-2-2-------------------------
      E|-------------------------------------------------------------
         o + + o o + + o o + + o o + + o o + + o o + + o o + + o o + 
      e|-------------------------------------------------------------
      B|-------------------------------------------------------------
gtr 2 G|-4-4-4-4-4-4-4-4-4-4-4-4-4-4-4-4-4-4-4-4-4-4-4-4-4-4-4-4-4-4-
      D|-------------------------------------------------------------
      A|-------------------------------------------------------------
      E|-------------------------------------------------------------

      e|-------------------------------------------------------------
      B|-------------------------------------------------------------
gtr 1 G|-2-2-x-x-x-x-x-2-2-2-x-x-4-2-4-2-----------------------------
      D|-4-4-x-x-x-x-x-4-4-4-x-x---------------0-2-0-3-4-2-2-0-------
      A|-2-2-x-x-x-x-x-2-2-2-x-x---------0-2-2-----------------2-0---
      E|-------------------------------------------------------------
         + o o + + o o + + o o + + o o + + o o + + o o + + o o + + o 
      e|-------------------------------------------------------------
      B|-------------------------------------------------------------
gtr 2 G|-4-4-4-4-4-4-4-4-4-4-4-4-4-4-4-4-4-4-4-4-4-4-4-4-4-4-4-4-4-4-
      D|-------------------------------------------------------------
      A|-------------------------------------------------------------
      E|-------------------------------------------------------------

Pre-chorus

e|-2-2-2-x-x-2-2-2-------2-2-2-x-x-2-2---------------------------------
B|-1-1-1-x-x-1-1-1-------1-1-1-x-x-1-1---------------------------------
G|-2-2-2-x-x-2-2-2-------2-2-2-x-x-2-2---------------------------------
D|-0-0-0-x-x-0-0-0-0-0-0-0-0-0-x-x-0-0---------------------------------
A|-------------------------------------0-------------------------------
E|---------------------------------------2-2-2-3-3-3-4-4-4-5-5-5-6-6-6-
*combined part


e|-------------------------------------------------------------
B|-------------------------------------------------------------
G|-------------------------------------------------------------
D|-------------------------------------------------------------
A|-------------------0-----------------------------------------
E|-7-7-7-8-8-8-9-9-9-------------------------------------------

Chorus:

        e|---2-2-2-2-2-2-2-2-2---0-0-0-0-0-0-----------3-3-3-3-3-3-0---2
        B|---1-1-1-1-1-1-1-1-1-0-0-0-0-0-0-0-----------3-3-3-3-3-3-0---1
gtr 1+2 G|---2-2-2-2-2-2-2-2-2-0-1-1-1-1-1-1-----------0-0-0-0-0-0-0---2
        D|-0-0-0-0-0-0-0-0-0-0-0-0-0-0-0-0-0-----------0-0-0-0-0-0-0-0-0
        A|-0-0-0-0-0-0-0-0-0-0-0-2-2-2-2-2-2-4-5-4-2-0---------------0-0
        E|-----------------------0-0-0-0-0-0-----------3-3-3-3-3-3-----

        e|-------------10------------------------------3-3-3-3-3-3-0---2
        B|-13b15-13~~~----9----9---9-~~~~~~~~----------3-3-3-3-3-3-0---1
gtr 3   G|----------------9b11-9-7-9-~~~~~~~~----------0-0-0-0-0-0-0---2-
(elec)  D|---------------------------------------------0-0-0-0-0-0-0-0-0-
        A|-----------------------------------4-5-4-2-0---------------0-0
        E|---------------------------------------------3-3-3-3-3-3------

        e|-2-2-2-2------------------------------------
        B|-1-1-1-1------------------------------------
gtr 1+2 G|-2-2-2-2------------------------------------
        D|-0-0-0-0------------------------------------
        A|-0-0-0-0-------0----------------------------
        E|---------2-3-4------------------------------

        e|-2-2-2-2------------------------------------
        B|-1-1-1-1------------------------------------
gtr 3   G|-2-2-2-2------------------------------------
        D|-0-0-0-0------------------------------------
        A|-0-0-0-0-------0----------------------------
        E|---------2-3-4------------------------------

        e|---2-2-2-2-2-2-2-2-2---0-0-0-0-0-0-----------3-3-3-3-3-3-0---2-
        B|---1-1-1-1-1-1-1-1-1-0-0-0-0-0-0-0-----------3-3-3-3-3-3-0---1-
gtr 1+2 G|---2-2-2-2-2-2-2-2-2-0-1-1-1-1-1-1-----------0-0-0-0-0-0-0---2-
        D|-0-0-0-0-0-0-0-0-0-0-0-0-0-0-0-0-0-----------0-0-0-0-0-0-0-0-0-
        A|-0-0-0-0-0-0-0-0-0-0-0-2-2-2-2-2-2-4-5-4-2-0---------------0-0-
        E|-----------------------0-0-0-0-0-0-----------3-3-3-3-3-3-------

        e|-------------10------------------------------3-3-3-3-3-3-0---2-
        B|----------------9----9---9-~~~~~~~~----------3-3-3-3-3-3-0---1-
gtr 3   G|----------------9b11-9-7-9-~~~~~~~~----------0-0-0-0-0-0-0---2-
(elec)  D|---------------------------------------------0-0-0-0-0-0-0-0-0-
        A|-----------------------------------4-5-4-2-0---------------0-0-
        E|---------------------------------------------3-3-3-3-3-3-------

        e|-2-2-2-2------------------------------------
        B|-1-1-1-1------------------------------------
gtr 1+2 G|-2-2-2-2------------------------------------
        D|-0-0-0-0------------------------------------
        A|-0-0-0-0-------0----------------------------
        E|---------2-3-4------------------------------

        e|-2-2-2-0------------------------------------
        B|-1-1-1-0------------------------------------
gtr 3   G|-2-2-2-0------------------------------------
        D|-0-0-0-0------------------------------------
        A|-0-0-0--------------------------------------
        E|--------------------------------------------

            e|-------------------------------------------------------
            B|-------------------------------------------------------
gtr 1+2+3   G|-------------------------------------------------------
            D|-------------------------------------------------------
            A|-3h5-5-3h5-5-3h5-5-3h5-5-3h5-5-x-----------------------
            E|-------------------------------------------------------

verse 2:

      e|-------------------------------------------------------------
      B|-----------------------------------------------2-------------
gtr 1 G|-2-2-x-x-x-x-x-2-2-2-x-x-x-x-x-----------------2---2-4-------
      D|-4-4-x-x-x-x-x-4-4-4-x-x-x-x-x-------0-2-0-3-4---4-----------
      A|-2-2-x-x-x-x-x-2-2-2-x-x-x-x-x-0-2-2-------------------------
      E|-------------------------------------------------------------
         o + + o o + + o o + + o o + + o o + + o o + + o o + + o o + 
      e|-------------------------------------------------------------
      B|-------------------------------------------------------------
gtr 2 G|-4-4-4-4-4-4-4-4-4-4-4-4-4-4-4-4-4-4-4-4-4-4-4-4-4-4-4-4-4-4-
      D|-------------------------------------------------------------
      A|-------------------------------------------------------------
      E|-------------------------------------------------------------

      e|-------------------------------------------------------------
      B|-------------------------------------------------------------
gtr 1 G|-2-2-x-x-x-x-x-2-2-2-x-x-x-x-x-------------------------------
      D|-4-4-x-x-x-x-x-4-4-4-x-x-x-x-x-------0-2-0-3-4-2-2-0---------
      A|-2-2-x-x-x-x-x-2-2-2-x-x-x-x-x-0-2-2-----------------2-0-----
      E|-------------------------------------------------------------
         + o o + + o o + + o o + + o o + + o o + + o o + + o o   + +
      e|-------------------------------------------------------------
      B|-------------------------------------------------------------
gtr 2 G|-4-4-4-4-4-4-4-4-4-4-4-4-4-4-4-4-4-4-4-4-4-4-4-4-4-4-4---4-4-
      D|-------------------------------------------------------------
      A|-------------------------------------------------------------
      E|-------------------------------------------------------------

      e|-------------------------------------------------------------
      B|-----------------------------------------------2-------------
gtr 1 G|-2-2-x-x-x-x-x-2-2-2-x-x-x-x-x-----------------2---2-4-------
      D|-4-4-x-x-x-x-x-4-4-4-x-x-x-x-x-------0-2-0-3-4---4-----------
      A|-2-2-x-x-x-x-x-2-2-2-x-x-x-x-x-0-2-2-------------------------
      E|-------------------------------------------------------------
         o o + + o o + + o o + + o o + + o o + + o o + + o o + + o o 
      e|-------------------------------------------------------------
      B|-------------------------------------------------------------
gtr 2 G|-4-4-4-4-4-4-4-4-4-4-4-4-4-4-4-4-4-4-4-4-4-4-4-4-4-4-4-4-4-4-
      D|-------------------------------------------------------------
      A|-------------------------------------------------------------
      E|-------------------------------------------------------------

      e|-------------------------------------------------------------
      B|-------------------------------------------------------------
gtr 1 G|-2-2-x-x-x-x-x-2-2-2-x-x-4-2-4-2-----------------------------
      D|-4-4-x-x-x-x-x-4-4-4-x-x---------------0-2-0-3-4-2-2-0-------
      A|-2-2-x-x-x-x-x-2-2-2-x-x---------0-2-2-----------------2-0---
      E|-------------------------------------------------------------
         + + o o + + o o + + o o + + o o + + o o + + o o + + o o + + 
      e|-------------------------------------------------------------
      B|-------------------------------------------------------------
gtr 2 G|-4-4-4-4-4-4-4-4-4-4-4-4-4-4-4-4-4-4-4-4-4-4-4-4-4-4-4-4-4-4-
      D|-------------------------------------------------------------
      A|-------------------------------------------------------------
      E|-------------------------------------------------------------

Pre-chorus

e|-2-2-2-x-x-2-2-2-------2-2-2-x-x-2-2---------------------------------
B|-1-1-1-x-x-1-1-1-------1-1-1-x-x-1-1---------------------------------
G|-2-2-2-x-x-2-2-2-------2-2-2-x-x-2-2---------------------------------
D|-0-0-0-x-x-0-0-0-0-0-0-0-0-0-x-x-0-0---------------------------------
A|-------------------------------------0-------------------------------
E|---------------------------------------2-2-2-3-3-3-4-4-4-5-5-5-6-6-6-
*combined part


e|-------------------------------------------------------------
B|-------------------------------------------------------------
G|-------------------------------------------------------------
D|-------------------------------------------------------------
A|-------------------0-----------------------------------------
E|-7-7-7-8-8-8-9-9-9-------------------------------------------

Chorus:

        e|---2-2-2-2-2-2-2-2-2---0-0-0-0-0-0-----------3-3-3-3-3-3-0---2
        B|---1-1-1-1-1-1-1-1-1-0-0-0-0-0-0-0-----------3-3-3-3-3-3-0---1
gtr 1+2 G|---2-2-2-2-2-2-2-2-2-0-1-1-1-1-1-1-----------0-0-0-0-0-0-0---2
        D|-0-0-0-0-0-0-0-0-0-0-0-0-0-0-0-0-0-----------0-0-0-0-0-0-0-0-0
        A|-0-0-0-0-0-0-0-0-0-0-0-2-2-2-2-2-2-4-5-4-2-0---------------0-0
        E|-----------------------0-0-0-0-0-0-----------3-3-3-3-3-3-----

        e|-------------10------------------------------3-3-3-3-3-3-0---2
        B|-13b15-13~~~----9----9---9-~~~~~~~~----------3-3-3-3-3-3-0---1
gtr 3   G|----------------9b11-9-7-9-~~~~~~~~----------0-0-0-0-0-0-0---2-
(elec)  D|---------------------------------------------0-0-0-0-0-0-0-0-0-
        A|-----------------------------------4-5-4-2-0---------------0-0
        E|---------------------------------------------3-3-3-3-3-3------

        e|-2-2-2-2------------------------------------
        B|-1-1-1-1------------------------------------
gtr 1+2 G|-2-2-2-2------------------------------------
        D|-0-0-0-0------------------------------------
        A|-0-0-0-0-------0----------------------------
        E|---------2-3-4------------------------------

        e|-2-2-2-2------------------------------------
        B|-1-1-1-1------------------------------------
gtr 3   G|-2-2-2-2------------------------------------
        D|-0-0-0-0------------------------------------
        A|-0-0-0-0-------0----------------------------
        E|---------2-3-4------------------------------

        e|---2-2-2-2-2-2-2-2-2---0-0-0-0-0-0-----------3-3-3-3-3-3-0---2-
        B|---1-1-1-1-1-1-1-1-1-0-0-0-0-0-0-0-----------3-3-3-3-3-3-0---1-
gtr 1+2 G|---2-2-2-2-2-2-2-2-2-0-1-1-1-1-1-1-----------0-0-0-0-0-0-0---2-
        D|-0-0-0-0-0-0-0-0-0-0-0-0-0-0-0-0-0-----------0-0-0-0-0-0-0-0-0-
        A|-0-0-0-0-0-0-0-0-0-0-0-2-2-2-2-2-2-4-5-4-2-0---------------0-0-
        E|-----------------------0-0-0-0-0-0-----------3-3-3-3-3-3-------

        e|-------------10------------------------------3-3-3-3-3-3-0---2-
        B|----------------9----9---9-~~~~~~~~----------3-3-3-3-3-3-0---1-
gtr 3   G|----------------9b11-9-7-9-~~~~~~~~----------0-0-0-0-0-0-0---2-
(elec)  D|---------------------------------------------0-0-0-0-0-0-0-0-0-
        A|-----------------------------------4-5-4-2-0---------------0-0-
        E|---------------------------------------------3-3-3-3-3-3-------

        e|-2-2-2-2------------------------------------
        B|-1-1-1-1------------------------------------
gtr 1+2 G|-2-2-2-2------------------------------------
        D|-0-0-0-0------------------------------------
        A|-0-0-0-0-------0----------------------------
        E|---------2-3-4------------------------------

        e|-2-2-2-0------------------------------------
        B|-1-1-1-0------------------------------------
gtr 3   G|-2-2-2-0------------------------------------
        D|-0-0-0-0------------------------------------
        A|-0-0-0--------------------------------------
        E|--------------------------------------------

            e|-------------------------------------------------------
            B|-------------------------------------------------------
gtr 1+2+3   G|-------------------------------------------------------
            D|-------------------------------------------------------
            A|-3h5-5-3h5-5-3h5-5-3h5-5-3h5-5-x-----------------------
            E|-------------------------------------------------------

Bridge:

           e|--------------------------------------------------|
           B|--------------------------------------------------|
gtr 1      G|-4-2---------------------4-2----------------------|
           D|-----4-3-2-2-2p0---0---------4-3-2-2-2p0---0------|
           A|-----------------2---2-0-----------------2---2-0--|
           E|--------------------------------------------------|

           e|-7----x-x---x-x----x-x---x-x-------------|
           B|---10-x-x-7-x-x----x-x---x-x-------------|
gtr 2+3    G|----------------10-----9-----9-9p7---7---| x 2
           D|-----------------------------------9---9-|
           A|-----------------------------------------|
           E|-----------------------------------------|

           e|--------------------------------------------------|
           B|--------------------------------------------------|
gtr 1      G|-4-2---------------------4-2---2------------------|
           D|-----4-3-2-2-2p0---0---------4--------------------|
           A|-----------------2---2-0--------------------------|
           E|--------------------------------------------------|

           e|-7----x-x---x-x----x-x---x-x-------------x-x-7----x-x----------|
           B|---10-x-x-7-x-x----x-x---x-x-------------x-x--10-x-x-7-10-10b12|
gtr 2+3    G|----------------10-----9-----9-9p7---7-------------------------| 
           D|-----------------------------------9---9-----------------------|
           A|---------------------------------------------------------------|
           E|---------------------------------------------------------------|

           e|--------------------------------------------------|
           B|--------------------------------------------------|
gtr 1      G|-2b4~~~~~~~~~~~~~~~~~~~~~~~~~~~~~~~~~~~~~~~~~~~~~~|
           D|--------------------------------------------------|
           A|--------------------------------------------------|
           E|--------------------------------------------------|

           e|--------------------------------------------------|
           B|-10b12-----10b12-10b12-10b12-10b12-10b12r10------|
gtr 2      G|--------------------------------------------------|
           D|--------------------------------------------------|
           A|--------------------------------------------------|
           E|--------------------------------------------------|

           e|--------------------------------------------------|
           B|--------------------------------------------------|
gtr 3      G|-9b11sr9------------------------------------------|
           D|--------------------------------------------------|
           A|--------------------------------------------------|
           E|--------------------------------------------------|

Chorus:

        e|---2-2-2-2-2-2-2-2-2---0-0-0-0-0-0-----------3-3-3-3-3-3-0---2
        B|---1-1-1-1-1-1-1-1-1-0-0-0-0-0-0-0-----------3-3-3-3-3-3-0---1
gtr 1+2 G|---2-2-2-2-2-2-2-2-2-0-1-1-1-1-1-1-----------0-0-0-0-0-0-0---2
        D|-0-0-0-0-0-0-0-0-0-0-0-0-0-0-0-0-0-----------0-0-0-0-0-0-0-0-0
        A|-0-0-0-0-0-0-0-0-0-0-0-2-2-2-2-2-2-4-5-4-2-0---------------0-0
        E|-----------------------0-0-0-0-0-0-----------3-3-3-3-3-3-----

        e|-------------10------------------------------3-3-3-3-3-3-0---2
        B|-13b15-13~~~----9----9---9-~~~~~~~~----------3-3-3-3-3-3-0---1
gtr 3   G|----------------9b11-9-7-9-~~~~~~~~----------0-0-0-0-0-0-0---2-
(elec)  D|---------------------------------------------0-0-0-0-0-0-0-0-0-
        A|-----------------------------------4-5-4-2-0---------------0-0
        E|---------------------------------------------3-3-3-3-3-3------

        e|-2-2-2-2------------------------------------
        B|-1-1-1-1------------------------------------
gtr 1+2 G|-2-2-2-2------------------------------------
        D|-0-0-0-0------------------------------------
        A|-0-0-0-0-------0----------------------------
        E|---------2-3-4------------------------------

        e|-2-2-2-2------------------------------------
        B|-1-1-1-1------------------------------------
gtr 3   G|-2-2-2-2------------------------------------
        D|-0-0-0-0------------------------------------
        A|-0-0-0-0-------0----------------------------
        E|---------2-3-4------------------------------

        e|---2-2-2-2-2-2-2-2-2---0-0-0-0-0-0-----------3-3-3-3-3-3-0---2-
        B|---1-1-1-1-1-1-1-1-1-0-0-0-0-0-0-0-----------3-3-3-3-3-3-0---1-
gtr 1+2 G|---2-2-2-2-2-2-2-2-2-0-1-1-1-1-1-1-----------0-0-0-0-0-0-0---2-
        D|-0-0-0-0-0-0-0-0-0-0-0-0-0-0-0-0-0-----------0-0-0-0-0-0-0-0-0-
        A|-0-0-0-0-0-0-0-0-0-0-0-2-2-2-2-2-2-4-5-4-2-0---------------0-0-
        E|-----------------------0-0-0-0-0-0-----------3-3-3-3-3-3-------

        e|-------------10------------------------------3-3-3-3-3-3-0---2-
        B|----------------9----9---9-~~~~~~~~----------3-3-3-3-3-3-0---1-
gtr 3   G|----------------9b11-9-7-9-~~~~~~~~----------0-0-0-0-0-0-0---2-
(elec)  D|---------------------------------------------0-0-0-0-0-0-0-0-0-
        A|-----------------------------------4-5-4-2-0---------------0-0-
        E|---------------------------------------------3-3-3-3-3-3-------

        e|-2-2-2-2-0-----------------------------------
        B|-1-1-1-1-0-----------------------------------
gtr 1+2 G|-2-2-2-2-0-----------------------------------
        D|-0-0-0-0-0-----------------------------------
        A|-0-0-0-0-----------------------------------
        E|---------------------------------------

        e|-2-2-2-2-0-----------------------------------
        B|-1-1-1-1-0-----------------------------------
gtr 3   G|-2-2-2-2-0-----------------------------------
        D|-0-0-0-0-0-----------------------------------
        A|-0-0-0-0-------------------------------------
        E|--------------------------------------------

e|--------------------------------------------------2----------
B|--------------------------------------------------1----------
G|--------------------------------------------------2----------
D|--------------------------------------------------0----------
A|------------------------------------------------0-0----------
E|2-2-2-3-3-3-4-4-4-5-5-5-6-6-6-7-7-7-8-8-8-9-9-9--------------

Notation Legend

| sr slowly release bend
| r  release bend
| /  slide up
|   slide down
| h  hammer-on
| p  pull-off
| ~  vibrato
| b  bend
| x  Mute note
=============================================================================


Текст, аккорды и табулатура для песни "Madame Helga", исполняет "Stereophonics".
Используемые в песне аккорды можно найти в разделе Как брать аккорды. Аккорды для шестиструнной гитары. Другие песни можно найти на нашем сайте, воспользовавшись алфавитным указателем вверху страницы.


Слушать онлайн Madame Helga


StereophonicsMadame Helga на Яндекс.Музыке


 
Ошибка в тексте? Выделите ошибку и нажмите Ctrl+Enter