erson: Scott Morgan

song: I Stopped To Fill MY Car Up(live version)

artist: Stereophonics

tab: stereophonics
i stopped to fill my car up(live version)
performance and cocktails
Tabbed by - Scott Morgan

I tabbed this from my Hurry Up & Wait live CD from Morfa, i'm not sure
about some of the chord names though, and some of the lyrics may be
wrong.

Chords

Am - X02210
Em/G - 322000
F/C - X3321X
C - X32010
? - X2000X
? - X33010

Intro

   Am         Em/G       F/C            

e----------------------------------------|
B--1--1--0----0--1--0----1--1------1--1--|
G--2----------0----------2--0h2----2--2--|
D--2----------2----------3---------3--3--|
A--0----------2----------3---------3--3--|
E----------------------------------------|

Am         Em/G          F/C          

e----------------------------------------|
B--1--1--0----0--5--3----1--1------1--1--|
G--2----------0----------2--0h2----2--2--|
D--2----------2----------3---------3--3--|
A--0----------2----------3---------3--3--|
E----------------------------------------|

Verses

Am                 Em/G             F/C          
1.    i stopped to fill my          car up
      the car      felt good        that day
      i didn't     know where i was going
      but it       felt good for    a change
      a five and a pocket full of   silver
      i paid the   lady no          change
      then it      started to       piss down
      started      driving         again
2.      man round    forty in the     back seat
        must have    stepped in when i was empty
        so why's he  sat there        just waiting
        likely to    smash my         face in
        he had a     bag full of      money
        said just    drive me         away
        i didn't     know where i was going
        but it       felt good to be  strange   
3.      curi_________osity is         over
        stepped      down from        the car
        he pulled a  gun from his     jacket
        said i was   going           to die
        it gives me  so mucg          satisfaction
        to watch     you beg          and cry
        well i just  made up this     story
        to get your  attention makes  me smile
e--------------------------------------------------------|
B--1---------------0----------------1--------------1--1--|
G--2---------------0----------------2--------------2--2--|
D--2---------------2----------------3--------------3--3--|
A--0---------------2----------------3--------------3--3--|
E--------------------------------------------------------|

Chorus

   C                            Am                   F/C
1.    Then I      looked up and looked in the mirror behind me
2.    And still I look up and   look in the   mirror behind me
3.    I never     looked up or  looked in the mirror behind me
e--------------------------------------------------------------|
B--1--------------0-------------1-------------1------1------1--|
G--0--------------0-------------2-------------0------2------0--|
D--2--------------0-------------2-------------2------3------3--|
A--3--------------2-------------0-------------X------3------3--|
E--------------------------------------------------------------|


   C                            Am                   F/C
      Then I      looked up and looked in the mirror behind me
      And still I look up and   look in the   mirror behind me
      I never     looked up or  looked in the mirror behind me
e----------------------------------------------------------------------------|
B--1--------------0-------------1-------------1------1------1------1------1--|
G--0--------------0-------------2-------------0------2------0------2------0--|
D--2--------------0-------------2-------------2------3------3------3------3--|
A--3--------------2-------------0-------------X------3------3------3------3--|
E----------------------------------------------------------------------------|

Outro
play first part twice with
different endings                       1.                        2.
   Am        Em/G      F/C
e-----------------------------|-------------------|-------|
B--1-1-1--0--0-0-0--0--1-1-1--|--1-1-1-1-1-1-1-1--|-------|
G--2-2-2--0--0-0-0--0--2-2-2--|--2-2-0-0-2-2-0-0--|-------|
D--2-2-2--0--2-2-2--0--3-3-3--|--3-3-3-3-3-3-3-3--|--12/--|
A--0-0-0--0--2-2-2--0--3-3-3--|--3-3-3-3-3-3-3-3--|--12/--|
E-----------------------------|-------------------|--12/--|

e-------------------------|
B-------------------------|
G--5-4-2-0-2---5-4-2-0-2--|
D-------------------------|
A-------------------------|
E-------------------------|

After this kelly play a long solo that i haven't worked out yet, but on
the video he gradually makes his way up the fretboeard using mainly the
D and G strings, try it yourselves to see if you come up with anything.
 The lastfew bars are as follows.

e--------------------------------------------------------------------------------------
B--1-1-1-0--0-1-0--1-1-1-0--------------------------------------1---1---0--------------
G--2-2------0------2-2------5--4--2b-r--5--4--2b-r--5---4---2b--2---------------------
D--2-2------2------3-3------------------------------------------2----------------------
A--0-0------2------3-3------------------------------------------0----------------------
E--------------------------------------------------------------------------------------

Those bends on the G string get slower each time and the last one is a
long slow bend up and then bent back down, and the last two notes
played are played slowly and allowed to ring.  A piano play a little
riff right at the end so try appregiating some chords from the song to
get the sound if you like.



Текст, аккорды и табулатура для песни "I Stopped To Fill My Car Up", исполняет "Stereophonics".
Используемые в песне аккорды можно найти в разделе Как брать аккорды. Аккорды для шестиструнной гитары. Другие песни можно найти на нашем сайте, воспользовавшись алфавитным указателем вверху страницы.


Слушать онлайн I Stopped To Fill My Car Up


StereophonicsI Stopped To Fill My Car Up на Яндекс.Музыке


 
Ошибка в тексте? Выделите ошибку и нажмите Ctrl+Enter