Tabbed by marcus lubbock
Status quo wild side of life
Email [email protected]

          Wild Side Of Life


    verse:
               Bb                              Eb
    Well, you wouldn?t read my letters if I wrote you
        F                               Bb
    You ask me not to call you on the phone
                                                      Eb
    Well, there?s something I?ve been waiting for to tell you
           F                         Bb
    So I wrote it in the words of a song

    verse:
    Now the glamour of the game that life has lured you
    To the places where the wine and liquer flow
    Well, you went to be some body else?s baby
    And forget the truest love you ever know


    chorus:
              Bb                         Eb
    I never knew there where honky-tonk angels
           F                                Bb
    Oh, I might have know you never make a wife
                                        Eb  -   C
    You gave up the only one that ever loved you
              F                         Bb
    And went back to that wild side of life

    guitar solo: (there are two guitars playing,
    but I only write down one line.)

   Bb
E|-10b11-10b11-10b11-10b11r10-8-6-6h8p6---6-6h8p6---6-|
B|--------------------------------------8---------8---|
G|----------------------------------------------------|
D|----------------------------------------------------|
A|----------------------------------------------------|
E|----------------------------------------------------|

                       Eb
E|-9------9-----9------9------8------6-------6--|
B|-12b14--12b14-12b14--12b14--11b13--9b11--8----|
G|----------------------------------------------|
D|----------------------------------------------|
A|----------------------------------------------|
E|----------------------------------------------|

   Bb                        Eb
E|-9------8------6-----6-----9------8------6-----|
B|-12b14--11b13--9b11--9b11--12b14--11b13--9b11--|
G|-----------------------------------------------|
D|-----------------------------------------------|
A|-----------------------------------------------|
E|-----------------------------------------------|

   C                  F
E|---------------------------------------|
B|-8-----8-----8------10----10----10-----|
G|-10b12-10b12-10b12--12b14-12b14-12b14--|
D|---------------------------------------|
A|---------------------------------------|
E|---------------------------------------|

   F                                    Bb
E|---------------------------------------------------|
B|-10b11-10b11-10b11-10b11-10b11-10b11--10b11--------|
G|---------------------------------------------------|
D|---------------------------------------------------|
A|---------------------------------------------------|
E|---------------------------------------------------|

    verse:
    Now the glamour of the gay that life has lured you
    To the places where the wine and liquer flow
    Well, you went to be some body else?s baby
    And forget the truest love you ever know

    chorus:
    I never knew there where honky-tonk angels
    Oh, I might have know you never make a wife
    You gave up the only one that ever loved you
    And went back to that wild side of life

    chorus:
    I never knew there where honky-tonk angels
    Oh, I might have know you never make a wife
    You gave up the only one that ever loved you
    And went back to that wild side of life


Текст, аккорды и табулатура для песни "Wild Side Of Life", исполняет "Status Quo".
Используемые в песне аккорды можно найти в разделе Как брать аккорды. Аккорды для шестиструнной гитары. Другие песни можно найти на нашем сайте, воспользовавшись алфавитным указателем вверху страницы.


 
Ошибка в тексте? Выделите ошибку и нажмите Ctrl+Enter