Tuning: C F A# D# G C


INTRO
                      x8
|-----------------------|
|-----------------------|
|-----------------------|
|---4----4----4----4----|
|---4----4----4----4----|
|-0h2--0h2--0h2--0-2----|
  ...  ...  ...  ...

              x4
|---------------|
|---------------|
|---------------|
|-5-----5-------|
|-5-----5-------|
|-3---0-3--0----|


VERSE - Guitars tacet first 4 bars

 Wayne - using downstrums
|-------------------------------------|
|-------------------------------------|
|-------------------------------------|
|-4--------4--------4--------4--------|
|-4--------4--------4--------4--------|
|-2--------2--------2--------2--------|
|Koichi - Play using only upstrums
|--------3--------3--------3----------|
|--------3--------3--------3----------|
|--------0--------0--------0----------|
|--------0--------0--------0----------|
|--------X--------X--------X----------|
|-------(3)------(3)------(3)---------|

 Both guitars
|-------------------------------------|
|-------------------------------------|
|-------------------------------------|
|-4--------4--------4--------4--------|
|-4--------4--------4--------4--------|
|-2--------2--------2--------2--------|

 Wayne - Play using only downstrums
|-------------------------------------|
|-------------------------------------|
|-------------------------------------|
|-4--------4--------4--------4--------|
|-4--------4--------4--------4--------|
|-2--------2--------2--------2--------|
|Koichi - Play using only upstrums
|--------3--------3--------3----------|
|--------3--------3--------3----------|
|--------0--------0--------0----------|
|--------0--------0--------0----------|
|--------X--------X--------X----------|
|-------(3)------(3)------(3)---------|


PRECHORUS
|-------------------------------------|
|-------------------------------------|
|-------------------------------------|
|-5--------5--------5--------5--------|
|-5--------5--------5--------5--------|
|-3--------3--------3--------3--------|


BRIDGE - Play the following twice

 Guitar 1
|-------------------------------------------------|
|-------------------------------------------------|
|-23-23-23-23-23-23-23-23-23-23-23-23-23-23-23-23-|
|-------------------------------------------------|
|-21-21-21-21-21-21-21-21-21-21-21-21-21-21-21-21-|
|-------------------------------------------------|
|Guitar 2
|-------------------------------------------------|
|-------------------------------------------------|
|-11-11-11-11-11-11-11-11-11-11-11-11-11-11-11-11-|
|-------------------------------------------------|
|-9--9--9--9--9--9--9--9--9--9--9--9--9--9--9--9--|
|-------------------------------------------------|

 Guitar 1
|-------------------------------------------------|
|-------------------------------------------------|
|-24-24-24-24-24-24-24-24-24-24-24-24-24-24-24-24-|
|-------------------------------------------------|
|-22-22-22-22-22-22-22-22-22-22-22-22-22-22-22-22-|
|-------------------------------------------------|
|Guitar 2
|-------------------------------------------------|
|-------------------------------------------------|
|-12-12-12-12-12-12-12-12-12-12-12-12-12-12-12-12-|
|-------------------------------------------------|
|-10-10-10-10-10-10-10-10-10-10-10-10-10-10-10-10-|
|-------------------------------------------------|


PRECHORUS 2
|-------------------------------------|
|-------------------------------------|
|-------------------------------------|
|-5--------5--------5--------5--------|
|-5--------5--------5--------5--------|
|-3--------3--------3--------3--------|


BRIDGE 2 - Play the following twice

 Guitar 1
|-------------------------------------------------|
|-------------------------------------------------|
|-23-23-23-23-23-23-23-23-23-23-23-23-23-23-23-23-|
|-------------------------------------------------|
|-21-21-21-21-21-21-21-21-21-21-21-21-21-21-21-21-|
|-------------------------------------------------|
|Guitar 2
|-------------------------------------------------|
|-------------------------------------------------|
|-11-11-11-11-11-11-11-11-11-11-11-11-11-11-11-11-|
|-------------------------------------------------|
|-9--9--9--9--9--9--9--9--9--9--9--9--9--9--9--9--|
|-------------------------------------------------|

 Guitar 1
|-------------------------------------------------|
|-------------------------------------------------|
|-24-24-24-24-24-24-24-24-24-24-24-24-24-24-24-24-|
|-------------------------------------------------|
|-22-22-22-22-22-22-22-22-22-22-22-22-22-22-22-22-|
|-------------------------------------------------|
|Guitar 2
|-------------------------------------------------|
|-------------------------------------------------|
|-12-12-12-12-12-12-12-12-12-12-12-12-12-12-12-12-|
|-------------------------------------------------|
|-10-10-10-10-10-10-10-10-10-10-10-10-10-10-10-10-|
|-------------------------------------------------|


Then play this
                      x4
|-----------------------|
|-----------------------|
|-----------------------|
|---4----4----4----4----|
|---4----4----4----4----|
|-0h2--0h2--0h2--0-2----|
  ...  ...  ...  ...


VERSE 2

 Both guitars
|-------------------------------------|
|-------------------------------------|
|-------------------------------------|
|-4--------4--------4--------4--------|
|-4--------4--------4--------4--------|
|-2--------2--------2--------2--------|

 Wayne - Play using only downstrums
|-------------------------------------|
|-------------------------------------|
|-------------------------------------|
|-4--------4--------4--------4--------|
|-4--------4--------4--------4--------|
|-2--------2--------2--------2--------|
|Koichi - Play using only upstrums
|--------3--------3--------3----------|
|--------3--------3--------3----------|
|--------0--------0--------0----------|
|--------0--------0--------0----------|
|--------X--------X--------X----------|
|-------(3)------(3)------(3)---------|

              x4
|---------------|
|---------------|
|---------------|
|-5-----5-------|
|-5-----5-------|
|-3---0-3--0----|


BRIDGE 3 - Play the following four times

 Guitar 1
|-------------------------------------------------|
|-------------------------------------------------|
|-23-23-23-23-23-23-23-23-23-23-23-23-23-23-23-23-|
|-------------------------------------------------|
|-21-21-21-21-21-21-21-21-21-21-21-21-21-21-21-21-|
|-------------------------------------------------|
|Guitar 2
|-------------------------------------------------|
|-------------------------------------------------|
|-11-11-11-11-11-11-11-11-11-11-11-11-11-11-11-11-|
|-------------------------------------------------|
|-9--9--9--9--9--9--9--9--9--9--9--9--9--9--9--9--|
|-------------------------------------------------|

 Guitar 1
|-------------------------------------------------|
|-------------------------------------------------|
|-24-24-24-24-24-24-24-24-24-24-24-24-24-24-24-24-|
|-------------------------------------------------|
|-22-22-22-22-22-22-22-22-22-22-22-22-22-22-22-22-|
|-------------------------------------------------|
|Guitar 2
|-------------------------------------------------|
|-------------------------------------------------|
|-12-12-12-12-12-12-12-12-12-12-12-12-12-12-12-12-|
|-------------------------------------------------|
|-10-10-10-10-10-10-10-10-10-10-10-10-10-10-10-10-|
|-------------------------------------------------|


Then play this
                      x8
|-----------------------|
|-----------------------|
|-----------------------|
|---4----4----4----4----|
|---4----4----4----4----|
|-0h2--0h2--0h2--0-2----|
  ...  ...  ...  ...


CHORUS/OUTRO - Play the following four times

 Guitar 1
|-------------------------------------------------|
|-------------------------------------------------|
|-23-23-23-23-23-23-23-23-23-23-23-23-23-23-23-23-|
|-------------------------------------------------|
|-21-21-21-21-21-21-21-21-21-21-21-21-21-21-21-21-|
|-------------------------------------------------|
|Guitar 2
|-------------------------------------------------|
|-------------------------------------------------|
|-11-11-11-11-11-11-11-11-11-11-11-11-11-11-11-11-|
|-------------------------------------------------|
|-9--9--9--9--9--9--9--9--9--9--9--9--9--9--9--9--|
|-------------------------------------------------|

 Guitar 1
|-------------------------------------------------|
|-------------------------------------------------|
|-24-24-24-24-24-24-24-24-24-24-24-24-24-24-24-24-|
|-------------------------------------------------|
|-22-22-22-22-22-22-22-22-22-22-22-22-22-22-22-22-|
|-------------------------------------------------|
|Guitar 2
|-------------------------------------------------|
|-------------------------------------------------|
|-12-12-12-12-12-12-12-12-12-12-12-12-12-12-12-12-|
|-------------------------------------------------|
|-10-10-10-10-10-10-10-10-10-10-10-10-10-10-10-10-|
|-------------------------------------------------|

End on

 Guitar 1
|-----------|
|-----------|
|-24--------|
|-----------|
|-22--------|
|-----------|
|Guitar 2
|-----------|
|-----------|
|-12--------|
|-----------|
|-10--------|
|-----------|


Текст, аккорды и табулатура для песни "Bled", исполняет "Static X".
Используемые в песне аккорды можно найти в разделе Как брать аккорды. Аккорды для шестиструнной гитары. Другие песни можно найти на нашем сайте, воспользовавшись алфавитным указателем вверху страницы.


 
Ошибка в тексте? Выделите ошибку и нажмите Ctrl+Enter