Artist: The Starting Line
Song: Threes A Charm
Album: With Hopes Of Starting Over
Tabbed By: Marc Morgan
E mail: [email protected]

im not 100% sure but this seems right to me.

e-----------------------------------------------------------
B----7-7P5-8-8-8/7-5-7------------7--5H7P5------------------
G---7-----7-7----------(5X)------7--------7----(1X)---------
D-----------------------------------------------------------
A-----------------------------------------------------------
E-----------------------------------------------------------

e-----------------------------------------------------------
B-----------------------------------------------------------
G-7-6-6-7-6---6H7-------------------------------------------
D----7------7-----------------------------------------------
A-----------------------------------------------------------
E-----------------------------------------------------------


Chorus And 2nd Part Of The Intro

e-----------------------------------------------------------
B-----------------------------------------------------------
G-----------------------------------------------------------
D-7---------------------------------------------------------
A-5---7--5---2*4*5*--7--------------------------------------
E-----5--3---0*2*3*--5-(PLAY ABOUT 6X)----------------------

Strumming patterns arent shown but its not hard to figure out and if it is 
drop the guitar now =P


Lead Riff Timing and and strumming aint show but it's easy to figure out

e-----------------------------------------------------------
B-----------------------------------------------------------
G-7-9--11-12--11-14--12---11--9--11-------------------------
D-x-x--x--xx--x--xx--xx---x---x--x--------------------------
A-5-7--9--10--9--12--10---9---7--9--------------------------
E-----------------------------------------------------------e-----------------------------------------------------------
B-----------------------------------------------------------
G--7-9--11--12--11-9--11-7-6--7/9/-7/6-7--------------------
D--X-x--x---xx--x--x--x--x-x--x-x--x-x-x--------------------
A--5-7--9---10--9--7--9--5-4--5/7/-5/4-5--------------------
E-----------------------------------------------------------


For the Say take it slow even stop 

palm mute this chord

e------------------------------------------------------------
B------------------------------------------------------------
G------------------------------------------------------------
D--------7---------------------------------------------------
A--------7---------------------------------------------------
E--------5---------------------------------------------------


after he says every now and again 2nd guitar plays this
e-----------------------------------------------------------
B-----------------------------------------------------------
G----4-7-4--------------------------------------------------
D-7-7-7-7-7-------------------------------------------------
A-----------------------------------------------------------
E-----------------------------------------------------------


Текст, аккорды и табулатура для песни "Threes A Charm", исполняет "Starting Line".
Используемые в песне аккорды можно найти в разделе Как брать аккорды. Аккорды для шестиструнной гитары. Другие песни можно найти на нашем сайте, воспользовавшись алфавитным указателем вверху страницы.


 
Ошибка в тексте? Выделите ошибку и нажмите Ctrl+Enter