INTRO/CHORUS

 
 G|------------------------------------------------------------------------
 D|------------------------------------------------------------------------   X2
 A|--------------------2-22-44-4-4-------------44-4--222-------------------
 E|---3-33-5---555-----------------55-7-5----------------------------------


             (continued)
 G|--------------------------------------------------
 D|--------------------------------------------------
 A|--------------------------------------------------
 E|---555555555555999977775----000----


             1st VERSE
 G|----------------------------------------------------------------------------
 D|----------------------------------------------------------------------------
 A|---777--777--777--777--777--777--777--777-00000000000000000000000000000000--
 E|----------------------------------------------------------------------------

            (continued)
 G|---------------------------------------------------------------------------
 D|---------------------------------------------------------------------------
 A|-------------------------------777--777--777--777--777--777--777--777--777-
 E|---555--555--555--555------------------------------------------------------

           (continued)
 G|----------------------------------------------------------
 D|----------------------------------------------------------
 A|---000000000000000000000000000000000--777--777--777--777--
 E|----------------------------------------------------------

             PRE-CHORUS
 G|--------------------------------------------
 D|--------------------------------------------
 A|---55555555-77777777-55555555-7-7-77--------
 E|--------------------------------------------

             2nd VERSE
 G|----------------------------------------------------
 D|----------------------------------------------------
 A|---7777777777777777777777777777777777777777777777---
 E|----------------------------------------------------

              (continued)
G|---------------------------------------------------------
D|---------------------------------------------------------
A|---0000000000000000000000000000000-----------------------
E|-------------------------------------555--555--555--555--

                  INTERLUDE
G|----------------------------------------------------
D|----------------------------------------------------
A|----------------------------------------------------
E|---3---5---3----5555555555555555555555555-----------

          
                OUTRO
G|-----------------------
D|-----------------------
A|-----------------------
E|--0--------------------


		
			ORDER

INTRO/CHORUS
1st VERSE
PRE-CHORUS
CHORUS
2nd VERSE
PRE-CHORUS
CHORUS 
INTERLUDE
CHORUS
OUTRO


Текст, аккорды и табулатура для песни "The Best Of Me", исполняет "Starting Line".
Используемые в песне аккорды можно найти в разделе Как брать аккорды. Аккорды для шестиструнной гитары. Другие песни можно найти на нашем сайте, воспользовавшись алфавитным указателем вверху страницы.


 
Ошибка в тексте? Выделите ошибку и нажмите Ctrl+Enter