***********************************************************************************
                                      Best Of Me
***********************************************************************************
Artist: Starting LineAlbum: Say It Like You Mean It
Tuning: Standard
Tabbed By: Jordan M

This is my first Tab And I'm not sure how accurate it is. I tried To Tab The
quiet guitar(the one that plays the intro) for this tab. If I have the time then 
I'll do the lead guitar.

00:01
e--0--x--0---0--0--0--0--0---0---0--0--0---0--0---0---0--0---0---0--0--0---0--0--0--
B--0--x--0---0--0--0--0--0---0---0--0--0---0--0---0---0--0---0---0--0--0---0--0--0--
G--5--x--2---2--2--2--4--4---4---4--4--4---2--2---2---2--2---4---4--4--4---4--4--4--
D--5--x--2---2--2--2--4--4---2---2--2--2---2--2---2---2--2---2---2--2--4---4--4--4--
A--7--x--0---0--0--0--2--2---4---4--4--4---0--0---0---0--0---4---4--4--2---2--2--2--
E-----x-----------------------------------------------------------------------------

e-----x--0---0--0--0--0--0---0---0--0--0---0--0---0---0--0---0---0--0--0---0--0--0--
B-----x--0---0--0--0--0--0---0---0--0--0---0--0---0---0--0---0---0--0--0---0--0--0--
G--1-----2---2--2--2--4--4---4---4--4--4---2--2---2---2--2---4---4--4--4---4--4--4--
D--2-----2---2--2--2--4--4---2---2--2--2---2--2---2---2--2---2---2--2--4---4--4--4--
A--2-----0---0--0--0--2--2---4---4--4--4---0--0---0---0--0---4---4--4--2---2--2--2--
E--0--------------------------------------------------------------------------------

e--0--0------0-0-0--
B--0--0------0-0-0--
G--4--2------2-2-2--
D--4--2------2-2-2--
A--2--0-------------
E-------------------

00:23
e--0--x--0---0--0--0--0--0---0---0--0--0---0--0---0---0--0---0---0--0--0---0--0--0--
B--0--x--0---0--0--0--0--0---0---0--0--0---0--0---0---0--0---0---0--0--0---0--0--0--
G--5--x--2---2--2--2--4--4---4---4--4--4---2--2---2---2--2---4---4--4--4---4--4--4--
D--5--x--2---2--2--2--4--4---2---2--2--2---2--2---2---2--2---2---2--2--4---4--4--4--
A--7--x--0---0--0--0--2--2---4---4--4--4---0--0---0---0--0---4---4--4--2---2--2--2--
E-----x-----------------------------------------------------------------------------

e--0--x--0---0--0--0--0--0---0---0--0--0---0--0-------0--0---0---0--0--0---0--0--0--
B--0--x--0---0--0--0--0--0---0---0--0--0---0--0-------0--0---0---0--0--0---0--0--0--
G--5--x--2---2--2--2--4--4---4---4--4--4---2--2-------2--2---4---4--4--4---4--4--4--
D--5--x--2---2--2--2--4--4---2---2--2--2---2--2-------2--2---2---2--2--4---4--4--4--
A--7--x--0---0--0--0--2--2---4---4--4--4---0--0-------0--0---4---4--4--2---2--2--2--
E-----x-----------------------------------------------------------------------------

e--0000000000000000--
B--0000000000000000--
G--2222222222222222--
D--2222222222222222--
A--0000000000000000--
E--------------------

00:46
e-----0--0--0--0--0--0--0--0--
B---0---0--0--0--0--0--0--0---
G--9---9--8--8--6--6--4--4----
D-----------------------------
A-----------------------------
E-----------------------------

00:59
e---------------------
B---------------------
G---------------------
D--777777777777777----
A--777777777777777----
E--555555555555555----

01:04
e----0--0--0--0--0--0--0--0--
B---0--0--0--0--0--0--0--0---
G--9--9--8--8--6--6--4--4----
D----------------------------
A----------------------------
E----------------------------

01:17
e--------------------
B--------------------
G---------------------
D--7777777777777777---
A--7777777777777777---
E--5555555555555557---

01:22
e----0--0--0--0--0--0--0--0--
B---0--0--0--0--0--0--0--0---
G--9--9--8--8--6--6--4--4----
D----------------------------
A----------------------------
E----------------------------

01:26
e---------------------------
B---------------------------
G---------------------------
D--9-44444444--77777777--44444444--777777--
A--9-44444444--77777777--44444444--777777--
E--7-22222222--55555555--22222222--555555--

01:35
e--0--x--0---0--0--0--0--0---0---0--0--0---0--0---0---0--0---0---0--0--0---0--0--0--
B--0--x--0---0--0--0--0--0---0---0--0--0---0--0---0---0--0---0---0--0--0---0--0--0--
G--5--x--2---2--2--2--4--4---4---4--4--4---2--2---2---2--2---4---4--4--4---4--4--4--
D--5--x--2---2--2--2--4--4---2---2--2--2---2--2---2---2--2---2---2--2--4---4--4--4--
A--7--x--0---0--0--0--2--2---4---4--4--4---0--0---0---0--0---4---4--4--2---2--2--2--
E-----x-----------------------------------------------------------------------------

e--0--x--0---0--0--0--0--0---0---0--0--0---0--0---0---0--0---0---0--0--0---0--0--0--
B--0--x--0---0--0--0--0--0---0---0--0--0---0--0---0---0--0---0---0--0--0---0--0--4--
G--5--x--2---2--2--2--4--4---4---4--4--4---2--2---2---2--2---4---4--4--4---4--4--4--
D--5--x--2---2--2--2--4--4---2---2--2--2---2--2---2---2--2---2---2--2--4---4--4--4--
A--7--x--0---0--0--0--2--2---4---4--4--4---0--0---0---0--0---4---4--4--2---2--2--2--
E-----x-----------------------------------------------------------------------------

e--0000000000000000--
B--0000000000000000--
G--2222222222222222--
D--2222222222222222--
A--0000000000000000--
E--------------------

01:58
E----0--0--0--0--0--0--0--0--
B---0--0--0--0--0--0--0--0---
G--9--9--8--8--6--6--4--4----
D----------------------------
A----------------------------
E----------------------------

02:11
e---------------------
B---------------------
G---------------------
D--7777777777777777---
A--7777777777777777---
E--5555555555555555---

02:16
e-----0--0--0--0--0--0--0--0--
B---0---0--0--0--0--0--0--0---
G--9---9--8--8--6--6--4--4----
D-----------------------------
A-----------------------------
E-----------------------------

02:20
e-------------------------------------------
B-------------------------------------------
G-------------------------------------------
D--5-44444444--77777777--44444444--777777--
A--5-44444444--77777777--44444444--777777--
E--7-22222222--55555555--22222222--555555--

02:29 play 2x
e--0--x--0---0--0--0--0--0---0---0--0--0---0--0---0---0--0---0---0--0--0---0--0--0--
B--0--x--0---0--0--0--0--0---0---0--0--0---0--0---0---0--0---0---0--0--0---0--0--0--
G--5--x--2---2--2--2--4--4---4---4--4--4---2--2---2---2--2---4---4--4--4---4--4--4--
D--5--x--2---2--2--2--4--4---2---2--2--2---2--2---2---2--2---2---2--2--4---4--4--4--
A--7--x--0---0--0--0--2--2---4---4--4--4---0--0---0---0--0---4---4--4--2---2--2--2--
E-----x-----------------------------------------------------------------------------

e--0--x--0---0--0--0--0--0---0---0--0--0---0--0---0---0--0---0---0--0--0---0--0--0--
B--0--x--0---0--0--0--0--0---0---0--0--0---0--0---0---0--0---0---0--0--0---0--0--0--
G--5--x--2---2--2--2--4--4---4---4--4--4---2--2---2---2--2---4---4--4--4---4--4--4--
D--5--x--2---2--2--2--4--4---2---2--2--2---2--2---2---2--2---2---2--2--4---4--4--4--
A--7--x--0---0--0--0--2--2---4---4--4--4---0--0---0---0--0---4---4--4--2---2--2--2--
E-----x-----------------------------------------------------------------------------

don't play this part 2nd time around
e--0000000000000000---
B--0000000000000000---
G--2222222222222222---
D--2222222222222222---
A--0000000000000000---
E---------------------

03:10                                         repeat this part 4x      end on
e--0-------0-------0-------0--------0---------0----0-------0-------------0--
B---4--------4-------4-------4--------4--------4-----4---4---4-----------0--
G-----4--------4-------4-------4--------4--------4-----4-------4---------4--
D------------------------------------------------------------------------2--
A---------------------------------------------------------------------------
E---------------------------------------------------------------------------

03:35
e--0--x--0---0--0--0--0--0--0---0---0--0--0---0--0---0---0--0---0---0--0--0---0--0--0--
B--0--x--0---0--0--0--0--0--0---0---0--0--0---0--0---0---0--0---0---0--0--0---0--0--0--
G--5--x--2---2--2--2--2--4--4---4---4--4--4---2--2---2---2--2---4---4--4--4---4--4--4--
D--5--x--2---2--2--2--2--4--4---2---2--2--2---2--2---2---2--2---2---2--2--4---4--4--4--
A--7--x--0---0--0--0--0--2--2---4---4--4--4---0--0---0---0--0---4---4--4--2---2--2--2--
E-----x--------------------------------------------------------------------------------

e--0--x--0---0--0--0--0--0--0---0---0--0--0---0--0---0---0--0---0---0--0--0--0---
B--0--x--0---0--0--0--0--0--0---0---0--0--0---0--0---0---0--0---0---0--0--0--0---
G--7--x--2---2--2--2--2--4--4---4---4--4--4---2--2---2---2--2---4---4--4--4--4---
D--7--x--2---2--2--2--2--4--4---2---2--2--2---2--2---2---2--2---2---2--2--2--4---
A--5--x--0---0--0--0--0--2--2---4---4--4--4---0--0---0---0--0---4---4--4--4--2---
E-----x--------------------------------------------------------------------------

e--0---0--0--0--0-------0--0--0--0--0--0--0--0--0000000000000000----
B--0---0--0--0--0-------0--0--0--0--0--0--0--0--0000000000000000----
G--4---4--4--4--4-------4--4--4--4--4--4--4--4--2222222222222222----
D--2---2--2--2--4-------2--2--2--2--4--4--4--4--2222222222222222----
A--4---4--4--4--2-------4--4--4--4--2--2--2--2--0000000000000000----
E-------------------------------------------------------------------

04:02
e-----x--0---0--0---0--0--0---0--0---0---0--0--0--0-0--0-0-0--0-0--0-0---0-------
B-----x--0---0--0---0--0--0---0--0---0---0--0--0--0-0--0-0-0--0-0--0-0---0-------
G--1-----2---2--2---4--4--4---4--4---2---2--2--2--2-4--4-4-4--4-4--4-4---4-------
D--2-----2---2--2---4--4--2---2--2---2---2--2--2--2-2--2-2-2--4-4--4-4---2-------
A--2-----0---0--0---2--2--4---4--4---0---0--0--0--0-4--4-4-4--2-2--2-2---4-------
E--0-----------------------------------------------------------------------------

hope you liked my tab and i hope it's what your looking for.


Текст, аккорды и табулатура для песни "The Best Of Me", исполняет "Starting Line".
Используемые в песне аккорды можно найти в разделе Как брать аккорды. Аккорды для шестиструнной гитары. Другие песни можно найти на нашем сайте, воспользовавшись алфавитным указателем вверху страницы.


 
Ошибка в тексте? Выделите ошибку и нажмите Ctrl+Enter