THE STARTING LINE- BEST OF ME
~~~~~~~~~~~~~~~~~~~~~~~~~~~~~
hey this is a good tab i wrote, not TOTALLY complete with all guitar parts,
but it works if you're just jamming or somethin..listen to the song for most
strumming,send comments2 [email protected] thanks!! ~kristen

STANDARD TUNING

X = mute string
PM=palm mute
~ = ring out

acoustic intro part-

-0----------0--------0--------0----
-0----------0--------0--------0----
-1----------2--------4--------6----
-2----------2--------4--------4----
-2----------0--------2--------4----
-0----------x--------x--------x----
you       gone      so      alone
 we       older     we're   young

-0-----------0-------0-------I---------0--~
-0-----------0-------0-------I---------0--~
-2-----------6-------4-------I---------2--~
-2-----------4-------4-------I---------2--~
-0-----------4-------2-------I---------0--~
-x-----------x-------x-------I---------x--~
worst      you     best   (rpt once)                   
we        feelings  wont            up...


intro AND chorus- played with same chords as above but on electric (distortion)
                                                2nd end
-----------------------------------------------I-----
-----------------------------------------------I-----
-13--16--11--9-----9-9--9-9-------9-9-8-8/9/8--I--9~-
-13--16--11--9---9-9-9--9-9-11-9--9-9-8-8/9/8--I--9~- end on
-11--14---9--7---9-7-7--7-7-11-9--7-7-6-6/7/6--I--7~-
-----------------7-----------9-7---------------I-----
                                           

verse-1st guitar

------------------------------------------------------
------------------------------------------------------
------------------------------------------------------
--------------9---------------------------------------
--------------9---------------------------------------
-0-0-0-...----7------------0-0-0-...------------------
 PM---                     PM----
here..       to hear..      we reflect..

2nd guitar is doin something with these notes/chords..sorry lol

-0--0--0--0---
-0--0--0--0---
-9--8--6--4---
--------------
--------------
--------------

pre chorus-
                              2nd end
-----------------------------I-----
-----------------------------I-----
-----------------------------I-----
-4-------6-7-----------------I--7--
-4-------6-7-----------------I--7--
-2-------4-5-----------------I--5--
turn       and we whisper      tell..
  say what youre thinking..

chorus- same as intro - played with acous intro chords
                                                2nd end
-----------------------------------------------I-----
-----------------------------------------------I-----
-13--16--11--9-----9-9---9-9-------9-9-8-8/9/8-I--9~-
-13--16--11--9---9-9-9---9-9-11-9--9-9-8-8/9/8-I--9~- end on
-11--14---9--7---9-7-7---7-7-11-9--7-7-6-6/7/6-I--7~-
-----------------7-----------9-7---------------I-----
you were gone&  so alone..                       

  
repeat intro/chorus once instrumental


bridge-clean electric

-----------------------I-----------Iendon-0-~   
-----------------------I-----------I------0-~
---4---4---4---4-------I----4------I------4-~
--2-2-2-2-2-2-2-2------I---2-2-----I------2-~
-0---0---4---4----...--I--0---0..--I------0-~
-----------------------I-----------I------x-~
turn..   we whisper..     next..
sitting..and..
turn.....sitting..

over top occassionally(high): 0-----
                              -4----
                              --4..-

rpt chorus once - fade out with 
---        
---
-1~
-2~
-2~   
-0~

then on clean electric:

-0----------0--------0--------0----
-0----------0--------0--------0----
-1----------2--------4--------6----
-2----------2--------4--------4----
-2----------0--------2--------4----
-0----------x--------x--------x----
 we  got older,but we're stillyoung

-0-----------0-------0-------0--~
-0-----------0-------0-------0--~
-2-----------6-------4-------2--~
-2-----------4-------4-------2--~
-0-----------4-------2-------0--~
-x-----------x-------x-------x--~                  
we ...  feelings..  wont..  up...


LYRICS:
tell me what you thought about
when you were gone and so alone
the worst is over
you can have the best of me
we got older but we're still young
we never grew out of this feeling that we wont give up

here we lay again
on two seperate beds
riding phone lines
to hear that familiar voice
and pictures brought from memory
we reflect on miscomunication
and misunderstandings
and missing each other two
much too without you, let go

we turn our music down
and we whisper
say what your thinking right now
tell me what you thought about
when you were gone and so alone
the worst is over
you can have the best of me
we got older but we're still young
we never grew out of this feeling that we wont give up

jumping to conclusions
made me fall away from you
i'm so glad that the truth
has brought back together me and you

we're sitting on the ground
and we whisper
say what your thinking outloud

tell me what you thought about
when you were gone and so alone
the worst is over
you can have the best of me
we got older but we're still young
we never grew out of this feeling that we wont give up

we turn our music down
and we whisper
we're sitting on the ground
and we whisper
we turn our music down
we're sitting on the ground
and next time i'm in town
we will kiss girl
we will kiss girl

tell me what you thought about
when you were gone and so alone
the worst is over
you can have the best of me
we got older but we're still young
we never grew out of this feeling that we wont
feeling that we cant
we're not ready to give up

we got older but we're still young
we never grew out of this feeling that we wont give up...


Текст, аккорды и табулатура для песни "The Best Of Me", исполняет "Starting Line".
Используемые в песне аккорды можно найти в разделе Как брать аккорды. Аккорды для шестиструнной гитары. Другие песни можно найти на нашем сайте, воспользовавшись алфавитным указателем вверху страницы.


 
Ошибка в тексте? Выделите ошибку и нажмите Ctrl+Enter