The Starting Line
Playing Favorites
[email protected]	Standard Tuining  ~ = let ring

This song is on the new acoustic ep but this version is on 
Punk Goes Acoustic,it might be the same version but i dont know, 
this was tabbed before the ep came out.

Intro guitar 1
|------------------|
|------------------|
|--9--2--7--9--2~--|
|-11--4--7--7--2~--|
|--0--0--5--9--0~--|
|--0--0--0--0--0~--|
               same......................

Intro guitar 2                           ......................time
|------------------------------------------------------------------|
|------------------------------------------------------------------|
|------9-------9-----------9-------9--------2-------------4p2---2--|
|---11---9h11----11------7---7-7h9---7---4----2----0h2h4--------2--|
|-0-----------------12--------------------------0---------------0--|
|------------------------------------------------------------------|

Verse
|----------------|
|----------------|
|--9--2--7--9--9-|
|-11--4--7--7--7-|
|--0--0--5--9--0-|
|--0--0--0--0--0-|
 
Prechorus
Both Guitars
|-----------|
|-------2---|
|----2--2---|
|-2--2--0---|
|-0--0--0---|        I Think on the rest of the parts,
|-0--0--0---|        both guitars play, the structure 
                     and strumming patterns are pretty
Chorus               easy to figure out so have fun
|----------------|   with this song, its great.
|----------------|
|--9--9--2--9--9-|
|-11--9--4--9--7-|
|--0--0--0--x--0-|
|--0--0--0--9--0-|
End
|---------|
|---------|
|-9-9-9-9-|
|-7-7-7-7-|
|-9p0-x-7-|
|-0-0h9-0-|


Текст, аккорды и табулатура для песни "Playing Favorites", исполняет "Starting Line".
Используемые в песне аккорды можно найти в разделе Как брать аккорды. Аккорды для шестиструнной гитары. Другие песни можно найти на нашем сайте, воспользовавшись алфавитным указателем вверху страницы.


 
Ошибка в тексте? Выделите ошибку и нажмите Ctrl+Enter