By: Jeff M & Stefan W 

> = SLIDE 
P = PULL OFF 
H = HAMMER 


e|--3------------------------------------------------------------------------| 
B|--3------------------------------------------------------------------------| 
G|--0----8-777-8-10-12H-10-7-8-7>8-----------------------------3------------------| 
G|----------------------------7>9-7-5-4-4>5>4-2-0-0-------0------------------| 
D|--------------------------------------------------0-2>5-0------------------| 
A|---------------------------------------------------------------------------| 
E|---------------------------------------------------------------------------| 

2nd Solo 
e|8>7-----8-7----------------------------------------------------------------| 
B|---8>10----8---------------------------------------------------------------| 
G|------------7-4-4H5-5H4-2-0H2-2>4-4-5P-7P-5>4------4-7-5-4-7-5-------------| 
D|---------------------------------------------5-5--5------------------------| 
A|---------------------------------------------------------------------------| 
E|---------------------------------------------------------------------------| 

CONT. 
e|----------------------------------------------------------------3----------| 
B|----------------------------------------------------------------3----------| 
G|--4-7-5-4--4-7-5-4----------------------------------------------0----------| 
D|-5--------5--------5-5------------------------------------------0----------| 
A|---------------------------------------------------------------------------| 
E|-----------------------7>5-5>3-3>5-5>7-7-8>10-7-8-7-8-7-8>-3-3-------------| 

Ending 
e|--3-3-3-3-2-2(listen for times played)--3(listen)-2(listen)-2---3----------| 
B|----------------------------------------3---------3---------3---3----------| 
G|----------------------------------------0---------0-------------0----------| 
D|----------------------------------------------------------------0----------| 
A|---------------------------------------------------------------------------| 
E|---------------------------------------------------------------------------| 

There ya go. Hope you enjoy. BE GREATFUL!


Текст, аккорды и табулатура для песни "Piano Song", исполняет "Starting Line".
Используемые в песне аккорды можно найти в разделе Как брать аккорды. Аккорды для шестиструнной гитары. Другие песни можно найти на нашем сайте, воспользовавшись алфавитным указателем вверху страницы.


 
Ошибка в тексте? Выделите ошибку и нажмите Ctrl+Enter