-------------------------------------------------------------------------------
			     PIANO SONG - The Starting Line
-------------------------------------------------------------------------------
Tabbed by: Kyle S.

Tuning: Standard



intro
e|---------------|
B|8---7--7-------|
G|--7---7-7------|                               EADGBe
D|---------------| a few times then upstroke Gm (35543x) - all Gm are heavy upstroke
A|---------------| 
E|---------------|


first solo
e|-------------------------------------------------------------x-------------| 
B|8h10p8---8-10/12-12-12-10-8-8--8-----------------------------3-------------|
G|---------------------------------97542h4p2-0-0-----0-0---4-------------|
D|---------------------------------------------------4h5-------5-------------|
A|-------------------------------------------------------------5-------------|
E|-------------------------------------------------------------3-------------| 


second solo
e|87-------7h8p7------------------------------------------------------------| 
B|-----8/10-------8----------------------------------------------------------| 
G|------------------7-4-4-4/5-4-0-0h2-2/4-2-4-5-5/7-54----------------------| 
D|-------------------------------------------------------5-5-----------------| 
A|---------------------------------------------------------------------------| 
E|---------------------------------------------------------------------------| 

e|---------------------------------------------------------------------------|
B|---------------------------------------108-8---8/10-10/12--12h13-13/15----|
G|--4-7-5-5-4-5---4-7-5-5-4-5-4---------------7----------------------------|
D|5-------------5-----------------5-5-5--------------------------------------|
A|---------------------------------------------------------------------------|
E|---------------------------------------------------------------------------|

e|------------------------------------x--------------------------------------|
B|12-13-12-13-12-13-128-8-8----------3--------------------------------------|
G|------------------------------------4--------------------------------------|
D|------------------------------------5--------------------------------------|
A|------------------------------------5--------------------------------------|
E|------------------------------------3--------------------------------------|


outro
e|3--2--3--2--3--2--3--2--3--2--5--2--------------------------------------3--|
B|-33-33-33-33-33----33-33-33-33-33---------------------------------------3--|
G|----------------------------------  do that a lot of times and end on --0--|
D|------------------------------------------------------------------------0--|
A|------------------------------------------------------------------------x--|
E|------------------------------------------------------------------------3--|


Текст, аккорды и табулатура для песни "Piano Song", исполняет "Starting Line".
Используемые в песне аккорды можно найти в разделе Как брать аккорды. Аккорды для шестиструнной гитары. Другие песни можно найти на нашем сайте, воспользовавшись алфавитным указателем вверху страницы.


 
Ошибка в тексте? Выделите ошибку и нажмите Ctrl+Enter