This is song is great! 1st song i heard drom the Starting line... blew me off
Just listen to the song for the timing.


(Intro) 

 Guitar 1
e|------------------------------------| 
B|------------------------------------| 
G|--------4--let ring-----------------| 4x
D|---2-h4-----------------------------| 
A|------------------------------------| 
E|------------------------------------| 

e|-------------------------------------| 
B|-------------------------------------| 
G|---------4----------------6----------| 
D|---2-4-6---6-4-6-2--2-4-6---6-4-6-2--|
A|-------------------------------------| 
E|-------------------------------------| 

 Guitar 2   strum this chords 2 times!!!!
e|-------------------| 
B|-------------------| 
G|---9---6-----------| 
D|---9---6---7---9---| 
A|---7---4---7---9---| 
E|-----------5---7---| 

 Verse 1 & 2

    bass plays the 1st part! then......

 Guitar 1
   standing here beside you....
e|-----------------------------| 
B|-----------------------------| 
G|--------4------4--let ring---| 
D|---2-h4---2-h4---------------| 4x
A|-----------------------------| 
E|-----------------------------| 

 Guitar 2
e|----------------------------| 
B|----------------------------| 
G|----------------------------| 
D|--------9------9--let ring--|
A|---7-h9---7-h9--------------| 
E|----------------------------| 
 
pre-Chorus

 Guitars 1 & 2 strum this chords
e|-----------------------------------------------| 
B|-----------------------------------------------| 
G|---9---6---------------9---6-------7---6/14----| 
D|---9---6---7---9-xxx---9---6---7---7---6/14----|
A|---7---4---7---9-xxx---7---4---7---5---4/12----| 
E|-----------5---7-xxx-----------5---------------|   
  
Chorus

 Guitars 1 & 2
e|-------------------------------------------| 
B|-------------------------------------------| 
G|---9---6-----------9---6-------7---6---9---| 
D|---9---6---7---9---9---6---7---7---6---9---|
A|---7---4---7---9---7---4---7---5---4---7---| 
E|-----------5---7-----------5---------------|

Interlude

 Guitar 1
e|-------------------| 
B|-------------------| 
G|-------------------| 
D|---2---6---7---9---| 2x palm muted
A|---2---6---7---9---| 
E|---0---4---5---7---| 

 Guitar 2
e|--------------------------| 
B|--------------------------| 
G|--------------------------| 
D|-------9-----9-let ring---| 4x
A|---7-7---7-7--------------| 
E|--------------------------| 

Solo

e|-----------9-----------7---6-------------| 
B|---11-9------11-9----7---7---7-9-7-------| 
G|--------11--------11---------------8-6---| 
D|-----------------------------------------|
A|-----------------------------------------| 
E|-----------------------------------------|
     little sketchy at this part!!! sorry!!!
e|---10-12-10-12-16-14--------------| 
B|---------------------16-----------| 
G|------------------------2-4-6-8---| 
D|----------------------------------|
A|----------------------------------| 
E|----------------------------------|  

chorus/ending

 Guitar 1
e|------------------------| 
B|------------------------| 
G|---10---7---------------| 
D|---10---7---8---10------|
A|---8----5---8---10------| 
E|------------6---8-------| 
 
 Guitar 2
e|-------------------------------------------------| 
B|-------------------------------------------------| 
G|-------------------------------------------------| 
D|-----------10---------------------12-------------|
A|---8-10-12----12-10-12-8--8-10-12----12-10-12-8--| 
E|-------------------------------------------------| 

thats it!!! hiya there jr, al rey and chuqui...


Текст, аккорды и табулатура для песни "Nothings Gonna Stop Us Now", исполняет "Starting Line".
Используемые в песне аккорды можно найти в разделе Как брать аккорды. Аккорды для шестиструнной гитары. Другие песни можно найти на нашем сайте, воспользовавшись алфавитным указателем вверху страницы.


 
Ошибка в тексте? Выделите ошибку и нажмите Ctrl+Enter