Starting Line - Million Hearts
By:Andrew Mcshan([email protected])


Intro
e|---------------------------------------------------------------------------|
B|---------------------------------------------------------------------------|
G|-----7-5-------------------------------------------------------------------|
D|-5-2-7-5-------------------------------------------------------------------|
A|-5-2-5-3-------------------------------------------------------------------|
E|-3-0-----------------------------------------------------------------------|
Verse
e|---------------------------------------------------------------------------|
B|---------------------------------------------------------------------------|
G|-----7-5-------------------------------------------------------------------|
D|-5-2-7-5-------------------------------------------------------------------|
A|-5-2-5-3-------------------------------------------------------------------|
E|-3-0-----------------------------------------------------------------------|

e|---------------------------------------------------------------------------|
B|---------------------------------------------------------------------------|
G|---------------------------------------------------------------------------|
D|-7-5-10-12-----------------------------------------------------------------|
A|-7-5-10-12-----------------------------------------------------------------|
E|-5-3-8--10-----------------------------------------------------------------|
Chorus
e|---------------------------------------------------------------------------|
B|---------------------------------------------------------------------------|
G|---9-----------------------------------------------------------------------|
D|-5-9-10-12-----------------------------------------------------------------|
A|-5-7-10-12-----------------------------------------------------------------|
E|-3---8--10-----------------------------------------------------------------|
Bridge
e|---------------------------------------------------------------------------|
B|---------------------------------------------------------------------------|
G|---------------------------------------------------------------------------|
D|-5-9-12-14-----------------------------------------------------------------|
A|-5-9-12-14-----------------------------------------------------------------|
E|-3-7-1012------------------------------------------------------------------|

Its insane,
don't know why i came,
guess just to see you here,
but from far away, 
all i see is him and i just move on.
This is crazy.
No dates, 
for the prom you say,
as we both finally meet.
Then your smile fades
And i see in your eyes that it's all no fun.
Then you turn back to him 
as a calm theme song comes on.

I'm still in love,
but im one of the
million hearts you'll some day break.
Close my eyes,
but still i won't give up.
Still i wont give up.
Nooo....

I wait,
in this dance floor haze,
suffer the silly suit,
just for one more gaze.
And I'm sneaking around like a fool
so dumb.
On a saturday night man,
is this what I've become?

I'm still in love,
but I'm one of the
million hearts you'll some day break.
Close my eyes, 
but still i wont give up.
Still i wont give up
Nooooo....

And i know that i still don't believe it's true.
but i cant let you go, 
and i told her what to do.

I'm still in love,
but I'm one of the
million hearts you'll some day break.
Close my eyes, 
but still i wont give up.
Still i wont give up
Nooooo....


Текст, аккорды и табулатура для песни "Million Hearts", исполняет "Starting Line".
Используемые в песне аккорды можно найти в разделе Как брать аккорды. Аккорды для шестиструнной гитары. Другие песни можно найти на нашем сайте, воспользовавшись алфавитным указателем вверху страницы.


 
Ошибка в тексте? Выделите ошибку и нажмите Ctrl+Enter