Intro: (Guitar 1) Plays this progression throughout song
e:----------------------------------------------------------------
B:----------------------------------------------------------------
G:---4~-----------------------------------------------------------
D:---4~----2~----6~---4~------------------------------------------
A:---2~----2~----6~---4~------------------------------------------
E:---------0~----4~---2~------------------------------------------

e:----------------------------------------------------------------
B:--------4h5p4-----4h5p4------4h5p4/7/5p4h5p4--------------------
G:---4-4--------4-4-----------------------------------------------
D:---4-4--------4-4--------2-2--2-2-------------------------------
A:---2-2--------2-2--------2-2 -2-2-(g2)--------------------------
E:-------------------------0-0--0-0-------------------------------

e:----------------------------------------------------------------
B:--------4h5p4-------4h5p4------4h5p4/7/5p4h5p4------------------
G:----------------------------------------------------------------
D:----6-6--------6-6---------4-4----4-4---------------------------
A:----6-6--------6-6---------4-4----4-4---------------------------
E:----4-4--------4-4---------2-2----2-2---------------------------

e:----------------------------------------------------------------
B:-----4h5p4---4h5p4------4h5p4/7/5p4h5p4----4h5p4---4h5p4/7/5p4h5
G:--4-4-------4--------6-6-----6-6--------------------------------
D:--4-4-------4--------6-6-----6-6----------6-6--6-6---4-4---4--4-
A:--2-2-------2--------4-4-----4-4----------6-6--6-6---4-4---4--4-
E:------------------------------------------4-4--4-4---2-2---2--2-

 can I.. set a sunrise  guitar 1 only (guitar 1 palm mutes this)
e:----------------------------------------------------------------
B:----------------------------------------------------------------
G:--4-4-4-4-4-----------------------------------------------------
D:--4-4-4-4-4--2-2-2-2-2---6-6-6-6-6-------4-4-4-4-4--------------
A:--2-2-2-2-2--2-2-2-2-2---6-6-6-6-6-------4-4-4-4-4--------------
E:-------------0-0-0-0-0---4-4-4-4-4-------2-2-2-2-2--------------


Текст, аккорды и табулатура для песни "Left Coast Envy", исполняет "Starting Line".
Используемые в песне аккорды можно найти в разделе Как брать аккорды. Аккорды для шестиструнной гитары. Другие песни можно найти на нашем сайте, воспользовавшись алфавитным указателем вверху страницы.


 
Ошибка в тексте? Выделите ошибку и нажмите Ctrl+Enter