intro
verse
intro
verse
bridge
chorus
interlude
verse
bridge
chorus


Intro:
------------------------------------------------
------------------------------------------------
-----4-4-4-4---1--------------------------------
-----4-4-4-4---2---4-4-4-4--6-6-6-6-------------  2x
-----2-2-2-2---2---4-4-4-4--6-6-6-6-------------
-------------------2-2-2-2--4-4-4-4-------------


like this third time
------------------------------------------------
------------------------------------------------
-----4-4-4-4---1-----------------------1--1-----
-----4-4-4-4---2---4-4-4-4--6-6-6-6----2--2----- 
-----2-2-2-2---2---4-4-4-4--6-6-6-6----2--2-----
-------------------2-2-2-2--4-4-4-4----0--0-----


Verse: 
------------------------------------------------
------------------------------------------------
-----------1-----------1------------------------
---------4-2---------4-2---6-6-6--4-4-4--------- 2x
---2-2-2---2---2-2-2---2---6-6-6--4-4-4---------
-----------0-----------0---4-4-4--2-2-2---------



Bridge:
------------------------------------------------
------------------------------------------------
----------------------1-1-1-1-------------------
----6-6-6-6-6-6-6-6---2-2-2-2---4-4-4-4--------- 3x
----6-6-6-6-6-6-6-6---2-2-2-2---4-4-4-4---------
----4-4-4-4-4-4-4-4---0-0-0-0---2-2-2-2---------

Like this last time:
----------------------------------------------
----------------------------------------------
----------------------1-1-1-1-----------------
----6-6-6-6-6-6-6-6---2-2-2-2---4---4---------
----6-6-6-6-6-6-6-6---2-2-2-2---4---4---------
----4-4-4-4-4-4-4-4---0-0-0-0---2---2---------


Chorus:
----------------------------------------------
----------------------------------------------
---4-----6-----9-----------------1------------
---4-8x--6-8x--9-8x--6-----4-----2------------
---2-----4-----7-----6-8x--4-8x--2-16x--------
---------------------4-----2-----0------------


Interlude:
------------------------------------------------
------------------------------------------------
----------------------1-1-1-1-------------------
----6-6-6-6-6-6-6-6---2-2-2-2---4-4-4-4--------- 1x
----6-6-6-6-6-6-6-6---2-2-2-2---4-4-4-4---------
----4-4-4-4-4-4-4-4---0-0-0-0---2-2-2-2---------

------------------------------------------------
------------------------------------------------
----------------------1-1-1-1-------------------
----6-6-6-6-6-6-6-6---2-2-2-2---4---4----------- 1x
----6-6-6-6-6-6-6-6---2-2-2-2---4---4-----------
----4-4-4-4-4-4-4-4---0-0-0-0---2---2-----------


Текст, аккорды и табулатура для песни "Leaving", исполняет "Starting Line".
Используемые в песне аккорды можно найти в разделе Как брать аккорды. Аккорды для шестиструнной гитары. Другие песни можно найти на нашем сайте, воспользовавшись алфавитным указателем вверху страницы.


 
Ошибка в тексте? Выделите ошибку и нажмите Ctrl+Enter