Песенка просто офигенная!!! Услышал - обомлел! Посвящена дочери солиста.

           Zoe Jane (Staind)
 Well I want you to notice
 To notice when I'm not around
 I know that your eyes see straight through me
 And speak to me without a sound
  
 Chorus:
        And I want to hold you
        Protect you from all of the things I've already endured
        And I want to show you
        Show you all the things that this life has in store for you
        And I'll always love you
        The way that a father should love his daughter
 When I walked out this mourning
 I cried as I walked to the door
 I cried about how long I'd be away for
 I cried about leaving you all alone
 Chorus:
        And I want to hold you
        Protect you from all of the things I've already endured
        And I want to show you
        Show you all the things that this life has in store for you
        And I'll always love you
        The way that a father should love his daughter
        Sweet Zoe Jane
        Sweet Zoe Jane
 So I wanted to say this
 'Cause I wouldn't know where to begin
 To explain yo tou what I have been through
 To explain where your daddy has been
 Chorus:
        And I want to hold you
        Protect you from all of the things I've already endured
        And I want to show you
        Show you all the things that this life has in store for you
       And I'll always love you
        The way that a father should love his daughter
        Sweet Zoe Jane
        Sweet Zoe Jane
 
 Куплет:
 -----------------------------------------------------------------
 ---5-------5-------7-------7-------8-------8-------8-------8-----
 -----5-------5-------7-------7-------9-------9-------9-------9---
 -----------------------------------------------------------------
 -3-------3-------5-------5-------7-------7-------7-------7-------
 -----------------------------------------------------------------
 
 Припев: 
  G                                         D
 ------------------------------------------------------------------------------
 -----12--------12--------12--------12--------10-------10-------10-------10----
 --------12--------12--------12--------12--------11-------11-------11-------11-
 ------------------------------------------------------------------------------
 -10---------10--------10--------10---------9--------9--------9--------9-------
 ------------------------------------------------------------------------------
  Em                              C
 ---------------------------------------------------------------------------
 ---8-------8-------8-------8-------5-------5-------5-------5---------------
 -----9-------9-------9-------9-------5-------5-------5-------5-------------
 ---------------------------------------------------------------------------
 -7-------7-------7-------7-------3-------3-------3-------3-----------------
 ---------------------------------------------------------------------------
P.S. Эту песню можно часто услышать на радио Maximum.


Текст, аккорды и табулатура для песни "Zoe Jane", исполняет "Staind".
Используемые в песне аккорды можно найти в разделе Как брать аккорды. Аккорды для шестиструнной гитары. Другие песни можно найти на нашем сайте, воспользовавшись алфавитным указателем вверху страницы.


Слушать онлайн Zoe Jane


StaindZoe Jane на Яндекс.Музыке


 
Ошибка в тексте? Выделите ошибку и нажмите Ctrl+Enter