Hey guys, its Carlos Martinez again,this is one of Stainds best songs, after
having girl problems i can relate to this song,Mike uses a special effect that
makes the veruses echo, and this sounds exactly like it.I spent a lot of time
listening to it and tryin to tab it, so here ya go. 

Intro/Versuses-

|------------------6-------------------------------------------------------------
|-----------6--------------------------------------------------------------------
|--------------------------------------------------------------------------------
|--------------------------------------------------------------------------------
|--------------------------------------------------------------------------------
|--------------------------------------------------------------------------------
Chorus-

|-------------------------------------------------------------------------------
|-------------------------------------------------------------------------------
|---------------3---------------------------------------------------------------
|---3-----5-----3---------------------------------------------------------------
|---3-----5-----1---------------------------------------------------------------
|---1-----3---------------------------------------------------------------------

Interlude-

|-------------------------------------------------------------------------------
|-------------------------------------------------------------------------------
|----------------------------------------------------------------------3-3-3----
|---3-3-3---3-3-3---3-3-3--------------------------------------3-3-3---3-3-3----
|---3-3-3---3-3-3---3-3-3---3/2-3/2-3/2-3/2--6/5-6/5-6/5-6/5---3-3-3---1-1-1----
|---1-1-1---1-1-1---1-1-1--------------------------------------1-1-1---1-1-1----

|-------------------------------------------------------------------------------
|-----------4-4-4-----------4-4-4-----------------------------------------------
|-----------3-3-3-----------3-3-3-----------------------------------------------
|---3-3-3---1-1-1---3-3-3---1-1-1-3/2-3/2-3/2-3/2--6/5-6/5-6/5-6/5--------------
|---3-3-3---1-1-1---3-3-3---1-1-1-----------------------------------------------
|---1-1-1---1-1-1---1-1-1---1-1-1-----------------------------------------------


Текст, аккорды и табулатура для песни "Yesterday", исполняет "Staind".
Используемые в песне аккорды можно найти в разделе Как брать аккорды. Аккорды для шестиструнной гитары. Другие песни можно найти на нашем сайте, воспользовавшись алфавитным указателем вверху страницы.


Слушать онлайн Yesterday


StaindYesterday на Яндекс.Музыке


 
Ошибка в тексте? Выделите ошибку и нажмите Ctrl+Enter