Artist: Staind
Album: 14 Shades of Grey
Tuning: G# Eb Ab Db Gb Bb
Song: Tonight

Intro
#1
Bb------------------------------------------------------|
Gb------------------------------------------------------|
Db---9----12----5---------------------------------------|
Ab---7----10----3----0----------------------------------|
Eb---7----10----3----0----------------------------------|
G#---7----10----3----0----------------------------------|

#2
Bb------------------------------------------------------|
Gb------------------------------------------------------|
Db---9----12----5----7----------------------------------|
Ab---7----10----3----5----------------------------------|
Eb---7----10----3----5----------------------------------|
G#---7----10----3----5----------------------------------|

#3
Bb-----------------------------------------------------|
Gb-----------------------------------------------------|
Db---9----12----7--------------------------------------|
Ab---7----10----5--------------------------------------|
Eb---7----10----5--------------------------------------|
G#---7----10----5--------------------------------------|
(let the Bb Gb ring)
play #1, #2, #1, then #3

VERSE ( ) harmonics
Bb----0--------------0--------(5)--------------------------|
Gb-----------------0------(5)-----(5)----------------------|
Db---------------------------------------------------------|
Ab--7---9-10-9-7-3------5----------------------------------|
Eb---------------------------------------------------------|
G#---------------------------------------------------------|

Bb----0----------------------------------------------------------|
Gb---------------------------------------------------------------|
Db---------------7-7-7-7-7-7-7-7---------------------------------|
Ab--7---9-10-9-7-5-5-5-5-5-5-5-5---------------------------------|
Eb---------------------------------------------------------------|
G#---------------------------------------------------------------|

Chorus
Bb----------------------------------------------------|
Gb----------------------------------------------------|
Db-10----7-------9--------12--------------------------|
Ab-10----7-------7--------10--------------------------|
Eb--8----5-------7--------10--------------------------|
G#----------------------------------------------------|
(let the Bb Gb ring)

Bridge/Outro
#1
Bb-----------------------------------------------------------|
Gb----0--------0---0------0----------------------------------|
Db-----------------------------------------------------------|
Ab--7---7-7/10---3---3-0----0--------------------------------|
Eb-----------------------------------------------------------|
G#-----------------------------------------------------------|

#2
Bb-----------------------------------------------------------|
Gb----0--------0---0------0----------------------------------|
Db-----------------------------------------------------------|
Ab--7---7-7/10---3---3-5----5--------------------------------|
Eb-----------------------------------------------------------|
G#-----------------------------------------------------------|

#3
Bb---------------------------------------------------------|
Gb----0--------0---0---------------------------------------|
Db-----------------7---------------------------------------|
Ab--7---7-7/10-----5---------------------------------------|
Eb---------------------------------------------------------|
G#---------------------------------------------------------|

Play #1, #2, #1, then #3

thats it
the bridge might be wrong...hard to figure the exact notes
but it sounds close enough


Текст, аккорды и табулатура для песни "Tonight", исполняет "Staind".
Используемые в песне аккорды можно найти в разделе Как брать аккорды. Аккорды для шестиструнной гитары. Другие песни можно найти на нашем сайте, воспользовавшись алфавитным указателем вверху страницы.


Слушать онлайн Tonight


StaindTonight на Яндекс.Музыке


 
Ошибка в тексте? Выделите ошибку и нажмите Ctrl+Enter