song:painful
album:tolerate
tabber:enjoyincubus69

this is one of stainds best tracks wit a phat solo. the solo was real hard to tab so 
there will be mistakes so please correct it.there were no other tabs on the net for 
this track so i did it myself!


drop d + tune down half a step

intro
[palm muted-------------------]
------------------------------------------------------------------------------
------------------------------------------------------------------------------
------------------------------------------------------------------------------
-0-0-3-4-3-0-3-5-3-0-3-6-3-0-0-000--------------------------------------------
-0-0-3-4-3-0-3-5-3-0-3-6-3-0-0-000--------------------------------------------
-0-0-3-4-3-0-3-5-3-0-3-6-3-0-0-000--------------------------------------------

verse              [p.m----------------]
---------------------------------------------------------------------
---------------------------------------------------------------------
---------------------------------------------------------------------
-0--0-0--0--0--0-0--0-3-4-3-0-3-5-3-0-0--0-0--0-0--------------------
-0--0-0--0--0--0-0--0-3-4-3-0-3-5-3-0-0--0-0--0-0--------------------
-0--0-0--0--0--0-0--0-3-4-3-0-3-5-3-0-0--0-0--0-0--------------------

chorus
-------------------------------------
-------------------------------------
-------------------------------------
-12-10-3-5-3------12-10-3-5-3--------
-12-10-3-5-3------12-10-3-5-3--------
-12-10-3-5-3------12-10-3-5-3--------

solo
[use harmonics here]
------------------------------------------------------------
--5b-5b-5b-------------------------------------5b-5b-5b-----
--5b-5b-5b--5-7-5---5--------------------------5b-5b-5b-----
------------------7---7-5---5-7-5---5-----------------------
--------------------------7-------7---7-5-0-----------------
------------------------------------------------------------

[p.m---------------------------]
------------------------------------------------------
-----6-5---5-5-----8-8-----5-5--------14b-14b-14b-----
---7-----7-----7-7-----7-7-----7------14b-14b-14b-----
------------------------------------------------------
------------------------------------------------------
------------------------------------------------------

[hammer ons/pull offs are optional depending on how fast you can pick.
mike uses hammer/pulls i think but i prefer picking-gives a more clear sound]

-----15p13p12h13p12--------------------------------------------------------------
---x---------------15p14p12h15p12------------------------------------------------
-x-------------------------------14p13p12-14p13p12--12------------------12-------
--------------------------------------------------14--14p13p12--12h13h14---------
--------------------------------------------------------------14-----------------
---------------------------------------------------------------------------------


------------------------------------------------------------------------------------
-----------------------13-----------------------------------------------------------
-14brp12--------12--12b..12r-12~----------------------------------------------------
--------14-12h14---------------15~--15-12h14-15~-15-14brp12-14-12----12~--12----12--
------------------------------------------------------------------15---------15-----
------------------------------------------------------------------------------------


-22222222222222------------202020202020--------------17171717171717-------------
---------------202020202020------------17171717171717--------------151515151515-
--------------------------------------------------------------------------------
--------------------------------------------------------------------------------
--------------------------------------------------------------------------------
--------------------------------------------------------------------------------


15151515151515-----------------------------------------------------------15s17---
--------------131313-15-15-15-15p14p12---------------------------12h15s17--------
--------------------------------------14p13p12-----------------------------------
----------------------------------------------14p13p12--12h13h14-----------------
------------------------------------------------------14-------------------------
---------------------------------------------------------------------------------


-19--21b-17-15-17-15-------------------------------------------------------
--------------------18-15-17br-18p17p15--15--15-17b~-----------------------
---------------------------------------17--17---17b~-----------------------
---------------------------------------------------------------------------
---------------------------------------------------------------------------
---------------------------------------------------------------------------


Текст, аккорды и табулатура для песни "Painful", исполняет "Staind".
Используемые в песне аккорды можно найти в разделе Как брать аккорды. Аккорды для шестиструнной гитары. Другие песни можно найти на нашем сайте, воспользовавшись алфавитным указателем вверху страницы.


 
Ошибка в тексте? Выделите ошибку и нажмите Ctrl+Enter