artist: staind

SongTitle: home

Tabs: 
tuning low to high(Ab,Db,Ab,Db,Gb,Bb)

this is right



intro

--2^3^2--------------------------------------------------
--0------------------------------------------------------
--0-----11-11---0----------------------9-----------------
--------9--9^10-0-12-10-10^12--12-X3---9^10^9------------
--------9--9----0-12-10-10-----10------9------10-9-------
------------------10-------------------------------10-9-0
verse
  *                         *                 *
------------8-6-------------------------------------------
-------------0----14----12--14^12---14----12--14^12-------
--0---3--------------12----------------12-----------------
--0-----2------------------------13-----------------12----
--0-------------------------------------------------------
----------------------------------------------------------
chours
   *               *                     *
------------------------------------------------------------
---7-7-7-7-7---7---4------4---4b5b4^0----4/-----------------
---7-7-7-7-7---7---4------4---4b5b4^0-X3-4/-----------------
---5-5-5-5-0---0---2---------------------2/-----------------
---5-5-5-5-0---0---2-----2---------------2/-----------------
------------------------------------------------------------
bridge
------------------------------------------------------------
-------0-------0------0---------2---------------------------
------4-4-----4------4-4-------0----------------------------
-----0---0---0------0---0-----0-----------------------------
----0-----0-0------0-----0-0-3------------------------------
---3-------3------3-----------------------------------------

          *
---0-0----0---------------0--------------
---0-0----0---------------2--------------
---0-0----0---------------0--------------
---x-x----x---------------0--------------
---5-5-5--5---------------0^3------------
---3-3-3--3------------------------------
       pm
outro=chours
Ho


Текст, аккорды и табулатура для песни "Home", исполняет "Staind".
Используемые в песне аккорды можно найти в разделе Как брать аккорды. Аккорды для шестиструнной гитары. Другие песни можно найти на нашем сайте, воспользовавшись алфавитным указателем вверху страницы.


Слушать онлайн Home


StaindHome на Яндекс.Музыке


 
Ошибка в тексте? Выделите ошибку и нажмите Ctrl+Enter