Artist: Staind
Song: Fade
I'm so tired of people putting the song in some low tuning when really you don't. This is 100%. I have been playing guitar a long time and I know what's right!
 
The song is tuned in (Eb,Ab,Db,Gb,Bb,Eb)

Intro with sightly dirty elec. w/slow phase shifting effect
PART 1
eb|-0-----------0----------0---------0--------------
Bb|-0-----------0----------0---------0--------------
Gb|-0--4 BARS---0--4-BARS--0--4-BARS-0--4-BARS------
Db|-2-----------2----------2---------2--------------
Ab|-2-----------2----------2---------2--------------
Eb|-0-----------0----------0---------0--------------

INTRO PART 2 DISTORTION
     GTR.#1
eb|-----------------------------------------------
Bb|-----------------------------------------------
Gb|-----------------------------------------------
Db|-----------------------------------------------
Ab|---5-7-7--7-7-7-7-7--5--3--5-5-----------------
Eb|---5-7-7--5-5-5-5-5--5--3--5-5-5---------------

INTRO PART 2 DISTORTION
     GTR.#2   

Eb|-------------------------------------------------
Bb|-------------------------------------------------
Gb|-11-12--12-12-14-14-14-14-12-12-11-9-9-11-11-----
Db|--x--x---x--x--x--x--x--x--x--x--x-x-x--x--x-----
Ab|--9-10--10-10-12-12-12-12-10-10--9-7-7--9--9-----
Eb]-------------------------------------------------

VERSE ARE THE SAME AS THE INTRO
PART 1

PRE-CHORUS

eb|------------------------------------------------
Bb|------------------------------------------------
Gb|------------------------------------------------
Db|---------------------0--------------------------
Ab|---------2----0--0-----2-5-0-5------------------
Eb|--0-0--0---0-------2----------------------------

CHORUS  FIRST SEQUENCE
eb|------------------------------------------------
Bb|----3-3-3-3--3-3-3----1-1-1-1--3-3-3-3----------
Gb|----2-2-2-2--4-4-4----0-0-0-0--0-0-0-0----------
Db|----0-0-0-0--0-0-0----3-3-3-3--0-0-0-0----------
Ab|----x-x-x-x--x-x-x----3-3-3-3--2-2-2-2----------
Eb|--3-3-3-3-3--3-3-3--1-1-1-1-1--X-X-X-X----------

CHORUS SECOND SEQUENCE
eb|------------------------------------------------
Bb|----3-3-3-3--3-3-3----1-1-1-1--3-3-3-3----------
Gb|----2-2-2-2--4-4-4----0-0-0-0--2-2-2-2----------
Db|----0-0-0-0--0-0-0----3-3-3-3--0-0-0-0----------
Ab|----x-x-x-x--x-x-x----3-3-3-3--x-x-x-x----------
Eb|--3-3-3-3-3--3-3-3--1-1-1-1-1--2-2-2-2----------

BRIDGE
eb|------------------------------------------------
Bb|--------3----3-3-3-3-3-3------------------------
Gb|----0-0-0----2-2-2-2-2-2------------------------
Db|----2-2-0-0--0-0-0-0-0-0------------------------
Ab|--2-2-2-x-0--0-0-0-0-0-0------------------------
Eb|--0-0-0-3-x-------------------------------------

Outro is the same as the intro 


Текст, аккорды и табулатура для песни "Fade", исполняет "Staind".
Используемые в песне аккорды можно найти в разделе Как брать аккорды. Аккорды для шестиструнной гитары. Другие песни можно найти на нашем сайте, воспользовавшись алфавитным указателем вверху страницы.


Слушать онлайн Fade


StaindFade на Яндекс.Музыке


 
Ошибка в тексте? Выделите ошибку и нажмите Ctrl+Enter