this is a song that they made when they were younger. its a heavy song and hard
to play. but i wish you good luck. may be a little off itsa a rare song. have fun!

Tuning:B-F#-B-E-G#-C#

Intro
repeat 5x
e|------------------------------------------------------11-------7---8-------
B|------------------126------------------------------13---6-----7---6-------
G|--------------17^------------------------------------------7---7---4-------
D|-2--6--2--6-------------17-21-12-6-9-2012^-6-6-67----------21--7---8-----
A|-2--6--2--6------------------------------------------------------7---8-----
E|-2--6--2--6------------------------------------------------------7---8-----

solo part: incredibly fast
e|--------------1713---4h7-----------------------------------------------4-
B|------------7------21-----9p5----------------------------------------21-7--
G|---------15-------------------174-174-175-4-5-7^8^93------------8------
D|-------6-------------------------------------------------20-------4--------
A|----15-----------------------------------------------------20---3----------
E|-17----------------------------------------------------------20------------

e|--0-----0-------------9--------9---------1---------------------------------
B|--2-----2-----------8--------8---------2--0--------------------------------
G|--0-----0---------7--------7---------3-----0-------------------------------
D|4---1-7---0-2-9-6------8-6-------1-4--------8-2-1-9-8-9-3---1---1-0-2------
A|4---1-7---0-2-9--------8---------1------------2-1-9-8-9-3--3-2--1-0-2------
E|4---1-7---0---9--------8---------1------------2-1-9-8-9-3-4---5-1-0-2------

e|--------------9-9---------------------------------------------------------
B|-----------9-9------------------------------------------------------------
G|--------9-9---------------------------------------------------------------
D|-----9-9------------8-6---------------------------------------------------
A|--9-9---------------6-----------------------------------------------------
E|-7------------------6-7---------------------------------------------------

Verse:
e|------------9----------------------------------------------------------
B|----------0-8----------------------------------------------------------
G|---------9--------------------9---5---5---1-----0----------------------
D|------8-9---------21-21-21-12-9p8-7p6-5p4-3p2p1-0--1---1-1---1-1---1-1-
A|---9-9------------21-21-21-12----------------------1--1--1--1--1--1--1-
E|-0----------------21-21-21-12----------------------1-1---1-1---1-1---1-
prechorus: just music
e|-----------0-0------------13-------15-------------------------------------|
B|---------1--0--17-------14--14---15---------------------------------------|
G|-----1-1-1-------18^20--------12-----------------------------------------|
D|---1-1-1-1----------------------------------------------------------------|
A|---1------------------------------------0-0-0-0-0-0-0---------------------|
E|---1------------------------------------0-0-0-0-0-0-0---------------------|

Chorus:
e|---------------------------------------------------------------------------
B|---------------------------------------------------------------------------
G|---------------------------------------------------------------------------
D|-2-7-3-0---7-----2-7-3-0---5-----------5-5-2-7-3-0-------------------------
A|-2-7-3-0--7--1-1-2-7-3-0--4--5-5-5-5-5-5-5-2-7-3-0-0-0-0-0-1-0-2-1-0-------
E|-2-7-3-0-7----1--2-7-3-0-5----5-5-5-5-5--5-2-7-3-0--0--0-0-1-0-2-1-0-------

Bridge:
e|--12--------------------------8-8------2---2------3-4-5--------------------
B|----12---------------9--------5-5---4----3-------2------1------------------
G|------4-------------7-------------3-----------14---------4-8---------------
D|-0-----4-3-1---3-3-7--4-----7-------------------------------8----1-2-0-----
A|-0-------3-1--2--3----4--26----------------------------------8--1-2-0--0--
E|-0-------3-1-2---3----4-4--------------------------------------9-1-2-0-0-0-

Well thats it GOOD LUCK!

| /  slide up
|   slide down
| h  hammer-on
| p  pull-off
| ~  vibrato
| +  harmonic
| x  Mute note
===============================================================================


Текст, аккорды и табулатура для песни "Awareness", исполняет "Staind".
Используемые в песне аккорды можно найти в разделе Как брать аккорды. Аккорды для шестиструнной гитары. Другие песни можно найти на нашем сайте, воспользовавшись алфавитным указателем вверху страницы.


 
Ошибка в тексте? Выделите ошибку и нажмите Ctrl+Enter