Band: Staind
Song: A Flat
Album: Dysfunction
Tabbed by: [email protected]
Tuning: Drop Db

Intro
Eb|---------------|
Bb|---------------|
Gb|--7----5----2--|
Db|--0----0----0--|
Ab|---------------|
Db|---------------|
 
Chorus 1
Eb|------------------------------|
Bb|------------------------------|
Gb|--7-7-7-7----------------6----|
Db|--7-7-7-7-5-3/5-xxxx-3/5-6-5--|
Ab|--5-5-5-5-5-3/5-xxxx-3/5-4-5--|
Db|----------5-3/5-xxxx-3/5---5--|

Verse 
Eb|-------|-------------|
Bb|-------|-------------|
Gb|-------|-------------|
Db|--3h5--|-------------|
Ab|--3h5--|--3-3-3-3/4--|
Db|--3h5--|--5-5-5-5/6--|
         
Chorus 2
Eb|-------------------------------|
Bb|-------------------------------|
Gb|--7-7-7-7/8-----------6--------|
Db|--7-7-7-7/8-xx-3/5-xx-6-5-xxx--|
Ab|--5-5-5-5/6-xx-3/5-xx-4-5-xxx--|
Db|------------xx-3/5-xx---5-xxx--|
 
Bridge
Eb|-------------------|
Bb|-------------------|
Gb|-------------------|
Db|--------7-------5--|
Ab|-----4--------3----|
Db|--5---------3------|

Eb|---------------------------------|
Bb|---------------------------------|
Gb|-----------------7/6-------------|
Db|--5p3-5p3-5/6-xx-7/6-5-0-5/6-xx--|
Ab|--5p3-5p3-5/6-xx-5/4-5-0-5/6-xx--|
Db|--5p3-5p3-5/6-xx-----5-0-5/6-xx--|


Текст, аккорды и табулатура для песни "A Flat", исполняет "Staind".
Используемые в песне аккорды можно найти в разделе Как брать аккорды. Аккорды для шестиструнной гитары. Другие песни можно найти на нашем сайте, воспользовавшись алфавитным указателем вверху страницы.


 
Ошибка в тексте? Выделите ошибку и нажмите Ctrl+Enter