Artist: Stabbing Westward
Song: Save Yourself
Album: Darkest Days
Tabbed by: Brandon Barber


Jim, the bassist for Stabbing Westward, uses a 5-string bass for all of their songs, this will be tabbed for both 5 & 4-string basses.

Standard Tuning

 Intro/Verse:

G|----------|
D|----------| (repeat untill chorus)
A|----------|
E|----------|
B|-6--6-4-4-|


 Chorus:

G|--------------------------------------------------|
D|--------------------------------------------------|
A|--------------------------------------------------| (x2)
E|--------------------------------------------------|
B|-2-2-2-2-2-2-2-2-4-4-4-4-4-4-4-4-6--6-4-4-6--6-4-4|
     I......can.....not........save you............
  I.....can't even...save myself..so just save yourself


 Breakdown:

G|------------------------------------------------------------------|
D|-0-0-0-0-0-0-0-0--------------------------------------------------|
A|------------------------------------------------------------------|  (x6)
E|------------------6-6-6-6-6-6-6-6-5-5-5-5-5-5-5-5-4-4-4-4-4-4-4-4-|
B|------------------------------------------------------------------|
     Please...don't.........take.......pity.....on...me...

Then it goes back to the chorus until the end.


For a 4-string it goes something like this:

 Verse:

G|----------|
D|----------|
A|-8--8-6-6-|
E|----------|

 Chorus:

G|----------------------------------------------------|
D|----------------------------------------------------|
A|-4-4-4-4-4-4-4-4-6-6-6-6-6-6-6-6-8--8-6-6-8--8-6-6--|
E|----------------------------------------------------|

And the breakdown thingy is the same.


Текст, аккорды и табулатура для песни "Save Yourself", исполняет "Stabbing Westward".
Используемые в песне аккорды можно найти в разделе Как брать аккорды. Аккорды для шестиструнной гитары. Другие песни можно найти на нашем сайте, воспользовавшись алфавитным указателем вверху страницы.


Слушать онлайн Save Yourself


Stabbing WestwardSave Yourself на Яндекс.Музыке


 
Ошибка в тексте? Выделите ошибку и нажмите Ctrl+Enter